  0
SECTION
  2
HEADER
  9
$ACADVER
  1
AC1009
  9
$INSUNITS
 70
     5
 9
$MEASUREMENT
 70
    1
  0
ENDSEC
  0
SECTION
  2
TABLES
  0
TABLE
  2
LAYER
 70
     8
  0
LAYER
  2
0
 62
     7
 70
0
  6
CONTINUOUS
  0
LAYER
  2
1
 62
     1
 70
0
  6
CONTINUOUS
  0
LAYER
  2
2
 62
     2
 70
0
  6
CONTINUOUS
  0
LAYER
  2
3
 62
     3
 70
0
  6
CONTINUOUS
  0
LAYER
  2
4
 62
     4
 70
0
  6
CONTINUOUS
  0
LAYER
  2
5
 62
     5
 70
0
  6
CONTINUOUS
  0
LAYER
  2
6
 62
     6
 70
0
  6
CONTINUOUS
  0
LAYER
  2
7
 62
     7
 70
0
  6
CONTINUOUS
  0
ENDTAB
  0
TABLE
  2
STYLE
 70
     1
  0
STYLE
 70
     0
  2
STANDARD
  3
TXT
 40
0.00
 41
1.00
 42
1.00
 50
0.00
 71
     0
  0
ENDTAB
  0
ENDSEC
  0
SECTION
  2
BLOCKS
  0
BLOCK
  8
0
  2
EPAD
 70
0
 10
0.0
 20
0.0
  0
POLYLINE
  8
0
 66
1
 70
1
 40
0.5
 41
0.5
  0
VERTEX
  8
0
 10
-0.25
 20
0.0
 42
1.0
  0
VERTEX
  8
0
 10
0.25
 20
0.0
 42
1.0
  0
SEQEND
  8
0
  0
ENDBLK
  8
0
  0
BLOCK
  8
0
  2
RPAD
 70
0
 10
0.0
 20
0.0
  0
TRACE
  8
0
 10
-0.5
 20
-0.5
 11
-0.5
 21
0.5
 12
0.5
 22
-0.5
 13
0.5
 23
0.5
  0
ENDBLK
  8
0
  0
ENDSEC
0
SECTION
2
ENTITIES
0
INSERT
8
1
2
EPAD
10
1.092200
20
-0.994500
41
0.050000
42
0.050000
0
CIRCLE
8
0
10
1.092200
20
-0.994500
40
0.025400
0
INSERT
8
1
2
EPAD
10
0.698500
20
-0.740500
41
0.050000
42
0.050000
0
CIRCLE
8
0
10
0.698500
20
-0.740500
40
0.025400
0
INSERT
8
1
2
EPAD
10
0.698520
20
-0.789693
41
0.050000
42
0.050000
0
CIRCLE
8
0
10
0.698520
20
-0.789693
40
0.025400
0
INSERT
8
1
2
EPAD
10
1.012642
20
-0.946954
41
0.050000
42
0.050000
0
CIRCLE
8
0
10
1.012642
20
-0.946954
40
0.025400
0
INSERT
8
1
2
EPAD
10
0.952500
20
-1.007200
41
0.050000
42
0.050000
0
CIRCLE
8
0
10
0.952500
20
-1.007200
40
0.025400
0
INSERT
8
1
2
EPAD
10
1.004899
20
-0.613979
41
0.050000
42
0.050000
0
CIRCLE
8
0
10
1.004899
20
-0.613979
40
0.025400
0
INSERT
8
1
2
EPAD
10
0.708879
20
-0.060535
41
0.050000
42
0.050000
0
CIRCLE
8
0
10
0.708879
20
-0.060535
40
0.025400
0
INSERT
8
2
2
EPAD
10
0.127000
20
-0.931000
41
0.203200
42
0.203200
0
CIRCLE
8
0
10
0.127000
20
-0.931000
40
0.063500
0
INSERT
8
2
2
EPAD
10
0.127000
20
-0.677000
41
0.203200
42
0.203200
0
CIRCLE
8
0
10
0.127000
20
-0.677000
40
0.063500
0
INSERT
8
2
2
EPAD
10
0.127000
20
-0.423000
41
0.203200
42
0.203200
0
CIRCLE
8
0
10
0.127000
20
-0.423000
40
0.063500
0
INSERT
8
2
2
EPAD
10
0.127000
20
-0.169000
41
0.203200
42
0.203200
0
CIRCLE
8
0
10
0.127000
20
-0.169000
40
0.063500
0
POLYLINE
8
3
66
1
40
0.020320
41
0.020320
0
VERTEX
8
3
10
0.000000
20
-0.900000
0
VERTEX
8
3
10
0.003980
20
-0.940894
0
VERTEX
8
3
10
0.015430
20
-0.978711
0
VERTEX
8
3
10
0.033618
20
-1.012720
0
VERTEX
8
3
10
0.057813
20
-1.042188
0
VERTEX
8
3
10
0.087280
20
-1.066382
0
VERTEX
8
3
10
0.121289
20
-1.084570
0
VERTEX
8
3
10
0.159106
20
-1.096021
0
VERTEX
8
3
10
0.200000
20
-1.100000
0
SEQEND
8
3
0
POLYLINE
8
3
66
1
40
0.020320
41
0.020320
0
VERTEX
8
3
10
1.200000
20
-0.900000
0
VERTEX
8
3
10
1.196020
20
-0.940894
0
VERTEX
8
3
10
1.184570
20
-0.978711
0
VERTEX
8
3
10
1.166382
20
-1.012720
0
VERTEX
8
3
10
1.142188
20
-1.042188
0
VERTEX
8
3
10
1.112720
20
-1.066382
0
VERTEX
8
3
10
1.078711
20
-1.084570
0
VERTEX
8
3
10
1.040894
20
-1.096021
0
VERTEX
8
3
10
1.000000
20
-1.100000
0
SEQEND
8
3
0
POLYLINE
8
3
66
1
40
0.020320
41
0.020320
0
VERTEX
8
3
10
1.000000
20
0.000000
0
VERTEX
8
3
10
1.040894
20
-0.003979
0
VERTEX
8
3
10
1.078711
20
-0.015430
0
VERTEX
8
3
10
1.112720
20
-0.033618
0
VERTEX
8
3
10
1.142188
20
-0.057813
0
VERTEX
8
3
10
1.166382
20
-0.087280
0
VERTEX
8
3
10
1.184570
20
-0.121289
0
VERTEX
8
3
10
1.196020
20
-0.159106
0
VERTEX
8
3
10
1.200000
20
-0.200000
0
SEQEND
8
3
0
POLYLINE
8
3
66
1
40
0.020320
41
0.020320
0
VERTEX
8
3
10
0.200000
20
0.000000
0
VERTEX
8
3
10
0.159106
20
-0.003979
0
VERTEX
8
3
10
0.121289
20
-0.015430
0
VERTEX
8
3
10
0.087280
20
-0.033618
0
VERTEX
8
3
10
0.057813
20
-0.057813
0
VERTEX
8
3
10
0.033618
20
-0.087280
0
VERTEX
8
3
10
0.015430
20
-0.121289
0
VERTEX
8
3
10
0.003980
20
-0.159106
0
VERTEX
8
3
10
0.000000
20
-0.200000
0
SEQEND
8
3
0
POLYLINE
8
3
66
1
40
0.020320
41
0.020320
0
VERTEX
8
3
10
0.200000
20
0.000000
0
VERTEX
8
3
10
1.000000
20
0.000000
0
SEQEND
8
3
0
POLYLINE
8
3
66
1
40
0.020320
41
0.020320
0
VERTEX
8
3
10
1.200000
20
-0.200000
0
VERTEX
8
3
10
1.200000
20
-0.900000
0
SEQEND
8
3
0
POLYLINE
8
3
66
1
40
0.020320
41
0.020320
0
VERTEX
8
3
10
1.000000
20
-1.100000
0
VERTEX
8
3
10
0.200000
20
-1.100000
0
SEQEND
8
3
0
POLYLINE
8
3
66
1
40
0.020320
41
0.020320
0
VERTEX
8
3
10
0.000000
20
-0.900000
0
VERTEX
8
3
10
0.000000
20
-0.200000
0
SEQEND
8
3
0
ENDSEC
0
EOF

