  0
SECTION
  2
HEADER
  9
$ACADVER
  1
AC1009
  9
$INSUNITS
 70
     1
  0
ENDSEC
  0
SECTION
  2
TABLES
  0
TABLE
  2
LAYER
 70
     8
  0
LAYER
  2
0
 62
     7
 70
0
  6
CONTINUOUS
  0
LAYER
  2
1
 62
     1
 70
0
  6
CONTINUOUS
  0
LAYER
  2
2
 62
     2
 70
0
  6
CONTINUOUS
  0
LAYER
  2
3
 62
     3
 70
0
  6
CONTINUOUS
  0
LAYER
  2
4
 62
     4
 70
0
  6
CONTINUOUS
  0
LAYER
  2
5
 62
     5
 70
0
  6
CONTINUOUS
  0
LAYER
  2
6
 62
     6
 70
0
  6
CONTINUOUS
  0
LAYER
  2
7
 62
     7
 70
0
  6
CONTINUOUS
  0
ENDTAB
  0
TABLE
  2
STYLE
 70
     1
  0
STYLE
 70
     0
  2
STANDARD
  3
TXT
 40
0.00
 41
1.00
 42
1.00
 50
0.00
 71
     0
  0
ENDTAB
  0
ENDSEC
  0
SECTION
  2
BLOCKS
  0
BLOCK
  8
0
  2
EPAD
 70
0
 10
0.0
 20
0.0
  0
POLYLINE
  8
0
 66
1
 70
1
 40
0.5
 41
0.5
  0
VERTEX
  8
0
 10
-0.25
 20
0.0
 42
1.0
  0
VERTEX
  8
0
 10
0.25
 20
0.0
 42
1.0
  0
SEQEND
  8
0
  0
ENDBLK
  8
0
  0
BLOCK
  8
0
  2
RPAD
 70
0
 10
0.0
 20
0.0
  0
TRACE
  8
0
 10
-0.5
 20
-0.5
 11
-0.5
 21
0.5
 12
0.5
 22
-0.5
 13
0.5
 23
0.5
  0
ENDBLK
  8
0
  0
ENDSEC
0
SECTION
2
ENTITIES
0
INSERT
8
0
2
EPAD
10
-0.000532
20
0.125556
41
0.019685
42
0.019685
0
CIRCLE
8
0
10
-0.000532
20
0.125556
40
0.006000
0
INSERT
8
0
2
EPAD
10
0.085672
20
0.171861
41
0.019685
42
0.019685
0
CIRCLE
8
0
10
0.085672
20
0.171861
40
0.006000
0
INSERT
8
0
2
EPAD
10
-0.068138
20
0.117760
41
0.019685
42
0.019685
0
CIRCLE
8
0
10
-0.068138
20
0.117760
40
0.006000
0
INSERT
8
0
2
EPAD
10
-0.134336
20
0.147832
41
0.019685
42
0.019685
0
CIRCLE
8
0
10
-0.134336
20
0.147832
40
0.006000
0
INSERT
8
0
2
EPAD
10
-0.187624
20
0.143552
41
0.019685
42
0.019685
0
CIRCLE
8
0
10
-0.187624
20
0.143552
40
0.006000
0
INSERT
8
0
2
EPAD
10
0.000569
20
0.010662
41
0.019685
42
0.019685
0
CIRCLE
8
0
10
0.000569
20
0.010662
40
0.006000
0
INSERT
8
0
2
EPAD
10
0.009170
20
0.261556
41
0.019685
42
0.019685
0
CIRCLE
8
0
10
0.009170
20
0.261556
40
0.006000
0
INSERT
8
0
2
EPAD
10
-0.063276
20
0.172328
41
0.019685
42
0.019685
0
CIRCLE
8
0
10
-0.063276
20
0.172328
40
0.006000
0
INSERT
8
0
2
EPAD
10
0.120108
20
0.037298
41
0.019685
42
0.019685
0
CIRCLE
8
0
10
0.120108
20
0.037298
40
0.006000
0
INSERT
8
0
2
EPAD
10
0.109055
20
0.264250
41
0.019685
42
0.019685
0
CIRCLE
8
0
10
0.109055
20
0.264250
40
0.006000
0
INSERT
8
0
2
EPAD
10
0.189055
20
0.269250
41
0.019685
42
0.019685
0
CIRCLE
8
0
10
0.189055
20
0.269250
40
0.006000
0
INSERT
8
0
2
EPAD
10
0.189055
20
0.289250
41
0.019685
42
0.019685
0
CIRCLE
8
0
10
0.189055
20
0.289250
40
0.006000
0
INSERT
8
0
2
EPAD
10
0.229058
20
0.289250
41
0.019685
42
0.019685
0
CIRCLE
8
0
10
0.229058
20
0.289250
40
0.006000
0
INSERT
8
0
2
EPAD
10
0.229055
20
0.269250
41
0.019685
42
0.019685
0
CIRCLE
8
0
10
0.229055
20
0.269250
40
0.006000
0
INSERT
8
0
2
EPAD
10
0.209055
20
0.289250
41
0.019685
42
0.019685
0
CIRCLE
8
0
10
0.209055
20
0.289250
40
0.006000
0
INSERT
8
0
2
EPAD
10
-0.140945
20
-0.105750
41
0.019685
42
0.019685
0
CIRCLE
8
0
10
-0.140945
20
-0.105750
40
0.006000
0
INSERT
8
0
2
EPAD
10
-0.120945
20
-0.105750
41
0.019685
42
0.019685
0
CIRCLE
8
0
10
-0.120945
20
-0.105750
40
0.006000
0
INSERT
8
0
2
EPAD
10
-0.100945
20
-0.105750
41
0.019685
42
0.019685
0
CIRCLE
8
0
10
-0.100945
20
-0.105750
40
0.006000
0
INSERT
8
0
2
EPAD
10
0.019055
20
0.014250
41
0.019685
42
0.019685
0
CIRCLE
8
0
10
0.019055
20
0.014250
40
0.006000
0
INSERT
8
0
2
EPAD
10
0.039055
20
0.014250
41
0.019685
42
0.019685
0
CIRCLE
8
0
10
0.039055
20
0.014250
40
0.006000
0
INSERT
8
0
2
EPAD
10
0.054055
20
0.004250
41
0.019685
42
0.019685
0
CIRCLE
8
0
10
0.054055
20
0.004250
40
0.006000
0
INSERT
8
0
2
EPAD
10
0.038689
20
-0.002649
41
0.019685
42
0.019685
0
CIRCLE
8
0
10
0.038689
20
-0.002649
40
0.006000
0
INSERT
8
0
2
EPAD
10
0.018981
20
-0.002575
41
0.019685
42
0.019685
0
CIRCLE
8
0
10
0.018981
20
-0.002575
40
0.006000
0
INSERT
8
0
2
EPAD
10
-0.140945
20
-0.125750
41
0.019685
42
0.019685
0
CIRCLE
8
0
10
-0.140945
20
-0.125750
40
0.006000
0
INSERT
8
0
2
EPAD
10
-0.120945
20
-0.125750
41
0.019685
42
0.019685
0
CIRCLE
8
0
10
-0.120945
20
-0.125750
40
0.006000
0
INSERT
8
0
2
EPAD
10
-0.100945
20
-0.125750
41
0.019685
42
0.019685
0
CIRCLE
8
0
10
-0.100945
20
-0.125750
40
0.006000
0
INSERT
8
0
2
EPAD
10
0.116821
20
0.114110
41
0.019685
42
0.019685
0
CIRCLE
8
0
10
0.116821
20
0.114110
40
0.006000
0
INSERT
8
0
2
EPAD
10
0.161735
20
0.113942
41
0.019685
42
0.019685
0
CIRCLE
8
0
10
0.161735
20
0.113942
40
0.006000
0
INSERT
8
0
2
EPAD
10
0.161902
20
0.094167
41
0.019685
42
0.019685
0
CIRCLE
8
0
10
0.161902
20
0.094167
40
0.006000
0
INSERT
8
0
2
EPAD
10
0.161735
20
0.133047
41
0.019685
42
0.019685
0
CIRCLE
8
0
10
0.161735
20
0.133047
40
0.006000
0
INSERT
8
0
2
EPAD
10
0.221311
20
0.130028
41
0.019685
42
0.019685
0
CIRCLE
8
0
10
0.221311
20
0.130028
40
0.006000
0
INSERT
8
0
2
EPAD
10
0.189055
20
0.129250
41
0.019685
42
0.019685
0
CIRCLE
8
0
10
0.189055
20
0.129250
40
0.006000
0
INSERT
8
0
2
EPAD
10
-0.350945
20
0.099250
41
0.060000
42
0.060000
0
INSERT
8
0
2
EPAD
10
-0.350945
20
0.199250
41
0.060000
42
0.060000
0
INSERT
8
0
2
EPAD
10
-0.350945
20
-0.100750
41
0.060000
42
0.060000
0
INSERT
8
0
2
EPAD
10
-0.350945
20
-0.200750
41
0.060000
42
0.060000
0
INSERT
8
0
2
EPAD
10
0.349055
20
0.099250
41
0.060000
42
0.060000
0
INSERT
8
0
2
EPAD
10
0.349055
20
0.199250
41
0.060000
42
0.060000
0
INSERT
8
0
2
EPAD
10
0.349055
20
-0.100750
41
0.060000
42
0.060000
0
INSERT
8
0
2
EPAD
10
0.349055
20
-0.200750
41
0.060000
42
0.060000
0
POLYLINE
8
0
66
1
40
0.008000
41
0.008000
0
VERTEX
8
0
10
-0.296220
20
0.314211
0
VERTEX
8
0
10
-0.316345
20
0.312252
0
VERTEX
8
0
10
-0.334956
20
0.306617
0
VERTEX
8
0
10
-0.351693
20
0.297666
0
VERTEX
8
0
10
-0.366194
20
0.285759
0
VERTEX
8
0
10
-0.378101
20
0.271258
0
VERTEX
8
0
10
-0.387052
20
0.254521
0
VERTEX
8
0
10
-0.392687
20
0.235910
0
VERTEX
8
0
10
-0.394646
20
0.215785
0
SEQEND
8
0
0
POLYLINE
8
0
66
1
40
0.008000
41
0.008000
0
VERTEX
8
0
10
-0.394646
20
-0.217285
0
VERTEX
8
0
10
-0.392687
20
-0.237410
0
VERTEX
8
0
10
-0.387052
20
-0.256021
0
VERTEX
8
0
10
-0.378101
20
-0.272758
0
VERTEX
8
0
10
-0.366194
20
-0.287259
0
VERTEX
8
0
10
-0.351693
20
-0.299166
0
VERTEX
8
0
10
-0.334956
20
-0.308117
0
VERTEX
8
0
10
-0.316345
20
-0.313752
0
VERTEX
8
0
10
-0.296220
20
-0.315711
0
SEQEND
8
0
0
POLYLINE
8
0
66
1
40
0.008000
41
0.008000
0
VERTEX
8
0
10
0.392756
20
-0.217285
0
VERTEX
8
0
10
0.390798
20
-0.237410
0
VERTEX
8
0
10
0.385163
20
-0.256021
0
VERTEX
8
0
10
0.376211
20
-0.272758
0
VERTEX
8
0
10
0.364305
20
-0.287259
0
VERTEX
8
0
10
0.349803
20
-0.299166
0
VERTEX
8
0
10
0.333067
20
-0.308117
0
VERTEX
8
0
10
0.314456
20
-0.313752
0
VERTEX
8
0
10
0.294331
20
-0.315711
0
SEQEND
8
0
0
POLYLINE
8
0
66
1
40
0.008000
41
0.008000
0
VERTEX
8
0
10
0.294331
20
0.314211
0
VERTEX
8
0
10
0.314456
20
0.312252
0
VERTEX
8
0
10
0.333067
20
0.306617
0
VERTEX
8
0
10
0.349803
20
0.297666
0
VERTEX
8
0
10
0.364305
20
0.285759
0
VERTEX
8
0
10
0.376211
20
0.271258
0
VERTEX
8
0
10
0.385163
20
0.254521
0
VERTEX
8
0
10
0.390798
20
0.235910
0
VERTEX
8
0
10
0.392756
20
0.215785
0
SEQEND
8
0
0
POLYLINE
8
0
66
1
40
0.008000
41
0.008000
0
VERTEX
8
0
10
0.294331
20
0.314211
0
VERTEX
8
0
10
-0.296220
20
0.314211
0
SEQEND
8
0
0
POLYLINE
8
0
66
1
40
0.008000
41
0.008000
0
VERTEX
8
0
10
-0.394646
20
0.215785
0
VERTEX
8
0
10
-0.394646
20
-0.217285
0
SEQEND
8
0
0
POLYLINE
8
0
66
1
40
0.008000
41
0.008000
0
VERTEX
8
0
10
-0.296220
20
-0.315711
0
VERTEX
8
0
10
0.294331
20
-0.315711
0
SEQEND
8
0
0
POLYLINE
8
0
66
1
40
0.008000
41
0.008000
0
VERTEX
8
0
10
0.392756
20
-0.217285
0
VERTEX
8
0
10
0.392756
20
0.215785
0
SEQEND
8
0
0
ENDSEC
0
EOF

