  0
SECTION
  2
HEADER
  9
$ACADVER
  1
AC1009
  9
$INSUNITS
 70
     1
  0
ENDSEC
  0
SECTION
  2
TABLES
  0
TABLE
  2
LAYER
 70
     8
  0
LAYER
  2
0
 62
     7
 70
0
  6
CONTINUOUS
  0
LAYER
  2
1
 62
     1
 70
0
  6
CONTINUOUS
  0
LAYER
  2
2
 62
     2
 70
0
  6
CONTINUOUS
  0
LAYER
  2
3
 62
     3
 70
0
  6
CONTINUOUS
  0
LAYER
  2
4
 62
     4
 70
0
  6
CONTINUOUS
  0
LAYER
  2
5
 62
     5
 70
0
  6
CONTINUOUS
  0
LAYER
  2
6
 62
     6
 70
0
  6
CONTINUOUS
  0
LAYER
  2
7
 62
     7
 70
0
  6
CONTINUOUS
  0
ENDTAB
  0
TABLE
  2
STYLE
 70
     1
  0
STYLE
 70
     0
  2
STANDARD
  3
TXT
 40
0.00
 41
1.00
 42
1.00
 50
0.00
 71
     0
  0
ENDTAB
  0
ENDSEC
  0
SECTION
  2
BLOCKS
  0
BLOCK
  8
0
  2
EPAD
 70
0
 10
0.0
 20
0.0
  0
POLYLINE
  8
0
 66
1
 70
1
 40
0.5
 41
0.5
  0
VERTEX
  8
0
 10
-0.25
 20
0.0
 42
1.0
  0
VERTEX
  8
0
 10
0.25
 20
0.0
 42
1.0
  0
SEQEND
  8
0
  0
ENDBLK
  8
0
  0
BLOCK
  8
0
  2
RPAD
 70
0
 10
0.0
 20
0.0
  0
TRACE
  8
0
 10
-0.5
 20
-0.5
 11
-0.5
 21
0.5
 12
0.5
 22
-0.5
 13
0.5
 23
0.5
  0
ENDBLK
  8
0
  0
ENDSEC
0
SECTION
2
ENTITIES
0
INSERT
8
0
2
EPAD
10
-0.260000
20
0.190854
41
0.019685
42
0.019685
0
CIRCLE
8
0
10
-0.260000
20
0.190854
40
0.006000
0
INSERT
8
0
2
EPAD
10
-0.220019
20
0.189204
41
0.019685
42
0.019685
0
CIRCLE
8
0
10
-0.220019
20
0.189204
40
0.006000
0
INSERT
8
0
2
EPAD
10
-0.242953
20
0.013427
41
0.019685
42
0.019685
0
CIRCLE
8
0
10
-0.242953
20
0.013427
40
0.006000
0
INSERT
8
0
2
EPAD
10
-0.150000
20
-0.244146
41
0.070000
42
0.070000
0
CIRCLE
8
0
10
-0.150000
20
-0.244146
40
0.005000
0
INSERT
8
0
2
EPAD
10
-0.050000
20
-0.244146
41
0.070000
42
0.070000
0
CIRCLE
8
0
10
-0.050000
20
-0.244146
40
0.005000
0
INSERT
8
0
2
EPAD
10
0.050000
20
-0.244146
41
0.070000
42
0.070000
0
CIRCLE
8
0
10
0.050000
20
-0.244146
40
0.005000
0
INSERT
8
0
2
EPAD
10
0.150000
20
-0.244146
41
0.070000
42
0.070000
0
CIRCLE
8
0
10
0.150000
20
-0.244146
40
0.005000
0
POLYLINE
8
0
66
1
40
0.008000
41
0.008000
0
VERTEX
8
0
10
0.236220
20
-0.334146
0
VERTEX
8
0
10
0.252320
20
-0.332579
0
VERTEX
8
0
10
0.267209
20
-0.328071
0
VERTEX
8
0
10
0.280598
20
-0.320910
0
VERTEX
8
0
10
0.292200
20
-0.311385
0
VERTEX
8
0
10
0.301725
20
-0.299783
0
VERTEX
8
0
10
0.308886
20
-0.286394
0
VERTEX
8
0
10
0.313394
20
-0.271506
0
VERTEX
8
0
10
0.314961
20
-0.255406
0
SEQEND
8
0
0
POLYLINE
8
0
66
1
40
0.008000
41
0.008000
0
VERTEX
8
0
10
0.314961
20
0.256406
0
VERTEX
8
0
10
0.313394
20
0.272506
0
VERTEX
8
0
10
0.308886
20
0.287394
0
VERTEX
8
0
10
0.301725
20
0.300783
0
VERTEX
8
0
10
0.292200
20
0.312385
0
VERTEX
8
0
10
0.280598
20
0.321910
0
VERTEX
8
0
10
0.267209
20
0.329071
0
VERTEX
8
0
10
0.252320
20
0.333579
0
VERTEX
8
0
10
0.236220
20
0.335146
0
SEQEND
8
0
0
POLYLINE
8
0
66
1
40
0.008000
41
0.008000
0
VERTEX
8
0
10
-0.314961
20
-0.255406
0
VERTEX
8
0
10
-0.313394
20
-0.271506
0
VERTEX
8
0
10
-0.308886
20
-0.286394
0
VERTEX
8
0
10
-0.301725
20
-0.299783
0
VERTEX
8
0
10
-0.292200
20
-0.311385
0
VERTEX
8
0
10
-0.280598
20
-0.320910
0
VERTEX
8
0
10
-0.267209
20
-0.328071
0
VERTEX
8
0
10
-0.252320
20
-0.332579
0
VERTEX
8
0
10
-0.236220
20
-0.334146
0
SEQEND
8
0
0
POLYLINE
8
0
66
1
40
0.008000
41
0.008000
0
VERTEX
8
0
10
-0.314961
20
0.256406
0
VERTEX
8
0
10
-0.313394
20
0.272506
0
VERTEX
8
0
10
-0.308886
20
0.287394
0
VERTEX
8
0
10
-0.301725
20
0.300783
0
VERTEX
8
0
10
-0.292200
20
0.312385
0
VERTEX
8
0
10
-0.280598
20
0.321910
0
VERTEX
8
0
10
-0.267209
20
0.329071
0
VERTEX
8
0
10
-0.252320
20
0.333579
0
VERTEX
8
0
10
-0.236220
20
0.335146
0
SEQEND
8
0
0
POLYLINE
8
0
66
1
40
0.008000
41
0.008000
0
VERTEX
8
0
10
-0.314961
20
-0.058555
0
VERTEX
8
0
10
-0.306911
20
-0.057772
0
VERTEX
8
0
10
-0.299466
20
-0.055518
0
VERTEX
8
0
10
-0.286971
20
-0.047175
0
VERTEX
8
0
10
-0.278628
20
-0.034679
0
VERTEX
8
0
10
-0.276374
20
-0.027235
0
VERTEX
8
0
10
-0.275591
20
-0.019185
0
VERTEX
8
0
10
-0.276374
20
-0.011135
0
VERTEX
8
0
10
-0.278628
20
-0.003691
0
VERTEX
8
0
10
-0.286971
20
0.008805
0
VERTEX
8
0
10
-0.299466
20
0.017148
0
VERTEX
8
0
10
-0.306911
20
0.019402
0
VERTEX
8
0
10
-0.314961
20
0.020185
0
SEQEND
8
0
0
POLYLINE
8
0
66
1
40
0.008000
41
0.008000
0
VERTEX
8
0
10
0.314961
20
-0.058555
0
VERTEX
8
0
10
0.306911
20
-0.057772
0
VERTEX
8
0
10
0.299466
20
-0.055518
0
VERTEX
8
0
10
0.286971
20
-0.047175
0
VERTEX
8
0
10
0.278628
20
-0.034679
0
VERTEX
8
0
10
0.276374
20
-0.027235
0
VERTEX
8
0
10
0.275591
20
-0.019185
0
VERTEX
8
0
10
0.276374
20
-0.011135
0
VERTEX
8
0
10
0.278628
20
-0.003691
0
VERTEX
8
0
10
0.286971
20
0.008805
0
VERTEX
8
0
10
0.299466
20
0.017148
0
VERTEX
8
0
10
0.306911
20
0.019402
0
VERTEX
8
0
10
0.314961
20
0.020185
0
SEQEND
8
0
0
POLYLINE
8
0
66
1
40
0.008000
41
0.008000
0
VERTEX
8
0
10
0.314961
20
-0.058555
0
VERTEX
8
0
10
0.314961
20
-0.255406
0
SEQEND
8
0
0
POLYLINE
8
0
66
1
40
0.008000
41
0.008000
0
VERTEX
8
0
10
0.314961
20
0.020185
0
VERTEX
8
0
10
0.314921
20
0.256406
0
SEQEND
8
0
0
POLYLINE
8
0
66
1
40
0.008000
41
0.008000
0
VERTEX
8
0
10
-0.236220
20
-0.334146
0
VERTEX
8
0
10
0.236220
20
-0.334146
0
SEQEND
8
0
0
POLYLINE
8
0
66
1
40
0.008000
41
0.008000
0
VERTEX
8
0
10
-0.236220
20
0.335146
0
VERTEX
8
0
10
0.236220
20
0.335146
0
SEQEND
8
0
0
POLYLINE
8
0
66
1
40
0.008000
41
0.008000
0
VERTEX
8
0
10
-0.314961
20
0.020185
0
VERTEX
8
0
10
-0.314961
20
0.256406
0
SEQEND
8
0
0
POLYLINE
8
0
66
1
40
0.008000
41
0.008000
0
VERTEX
8
0
10
-0.314961
20
-0.058555
0
VERTEX
8
0
10
-0.314961
20
-0.255406
0
SEQEND
8
0
0
ENDSEC
0
EOF

