  0
SECTION
  2
HEADER
  9
$ACADVER
  1
AC1009
  9
$INSUNITS
 70
     5
 9
$MEASUREMENT
 70
    1
  0
ENDSEC
  0
SECTION
  2
TABLES
  0
TABLE
  2
LAYER
 70
     8
  0
LAYER
  2
0
 62
     7
 70
0
  6
CONTINUOUS
  0
LAYER
  2
1
 62
     1
 70
0
  6
CONTINUOUS
  0
LAYER
  2
2
 62
     2
 70
0
  6
CONTINUOUS
  0
LAYER
  2
3
 62
     3
 70
0
  6
CONTINUOUS
  0
LAYER
  2
4
 62
     4
 70
0
  6
CONTINUOUS
  0
LAYER
  2
5
 62
     5
 70
0
  6
CONTINUOUS
  0
LAYER
  2
6
 62
     6
 70
0
  6
CONTINUOUS
  0
LAYER
  2
7
 62
     7
 70
0
  6
CONTINUOUS
  0
ENDTAB
  0
TABLE
  2
STYLE
 70
     1
  0
STYLE
 70
     0
  2
STANDARD
  3
TXT
 40
0.00
 41
1.00
 42
1.00
 50
0.00
 71
     0
  0
ENDTAB
  0
ENDSEC
  0
SECTION
  2
BLOCKS
  0
BLOCK
  8
0
  2
EPAD
 70
0
 10
0.0
 20
0.0
  0
POLYLINE
  8
0
 66
1
 70
1
 40
0.5
 41
0.5
  0
VERTEX
  8
0
 10
-0.25
 20
0.0
 42
1.0
  0
VERTEX
  8
0
 10
0.25
 20
0.0
 42
1.0
  0
SEQEND
  8
0
  0
ENDBLK
  8
0
  0
BLOCK
  8
0
  2
RPAD
 70
0
 10
0.0
 20
0.0
  0
TRACE
  8
0
 10
-0.5
 20
-0.5
 11
-0.5
 21
0.5
 12
0.5
 22
-0.5
 13
0.5
 23
0.5
  0
ENDBLK
  8
0
  0
ENDSEC
0
SECTION
2
ENTITIES
0
INSERT
8
1
2
EPAD
10
0.495300
20
-1.066800
41
0.050000
42
0.050000
0
CIRCLE
8
0
10
0.495300
20
-1.066800
40
0.015240
0
INSERT
8
1
2
EPAD
10
0.176365
20
-1.019985
41
0.050000
42
0.050000
0
CIRCLE
8
0
10
0.176365
20
-1.019985
40
0.015240
0
INSERT
8
1
2
EPAD
10
0.625209
20
-0.773730
41
0.050000
42
0.050000
0
CIRCLE
8
0
10
0.625209
20
-0.773730
40
0.015240
0
INSERT
8
1
2
EPAD
10
0.113046
20
-0.608372
41
0.050000
42
0.050000
0
CIRCLE
8
0
10
0.113046
20
-0.608372
40
0.015240
0
INSERT
8
1
2
EPAD
10
0.092779
20
-1.079980
41
0.050000
42
0.050000
0
CIRCLE
8
0
10
0.092779
20
-1.079980
40
0.015240
0
INSERT
8
1
2
EPAD
10
0.965200
20
-1.003300
41
0.050000
42
0.050000
0
CIRCLE
8
0
10
0.965200
20
-1.003300
40
0.015240
0
INSERT
8
2
2
EPAD
10
0.250000
20
-0.250000
41
0.280000
42
0.280000
0
CIRCLE
8
0
10
0.250000
20
-0.250000
40
0.025400
0
INSERT
8
2
2
EPAD
10
0.250000
20
-1.350000
41
0.280000
42
0.280000
0
CIRCLE
8
0
10
0.250000
20
-1.350000
40
0.025400
0
POLYLINE
8
2
66
1
70
1
40
0
41
0
0
VERTEX
8
2
10
1.654800
20
-1.177120
0
VERTEX
8
2
10
1.654800
20
-1.184880
0
VERTEX
8
2
10
1.653355
20
-1.199211
0
VERTEX
8
2
10
1.649210
20
-1.212560
0
VERTEX
8
2
10
1.642652
20
-1.224641
0
VERTEX
8
2
10
1.633967
20
-1.235167
0
VERTEX
8
2
10
1.623441
20
-1.243852
0
VERTEX
8
2
10
1.611360
20
-1.250410
0
VERTEX
8
2
10
1.598011
20
-1.254555
0
VERTEX
8
2
10
1.583680
20
-1.256000
0
VERTEX
8
2
10
1.525920
20
-1.256000
0
VERTEX
8
2
10
1.511589
20
-1.254555
0
VERTEX
8
2
10
1.498240
20
-1.250410
0
VERTEX
8
2
10
1.486159
20
-1.243852
0
VERTEX
8
2
10
1.475633
20
-1.235167
0
VERTEX
8
2
10
1.466948
20
-1.224641
0
VERTEX
8
2
10
1.460390
20
-1.212560
0
VERTEX
8
2
10
1.456245
20
-1.199211
0
VERTEX
8
2
10
1.454800
20
-1.184880
0
VERTEX
8
2
10
1.454800
20
-1.177120
0
VERTEX
8
2
10
1.456245
20
-1.162789
0
VERTEX
8
2
10
1.460390
20
-1.149440
0
VERTEX
8
2
10
1.466948
20
-1.137359
0
VERTEX
8
2
10
1.475633
20
-1.126833
0
VERTEX
8
2
10
1.486159
20
-1.118148
0
VERTEX
8
2
10
1.498240
20
-1.111590
0
VERTEX
8
2
10
1.511589
20
-1.107445
0
VERTEX
8
2
10
1.525920
20
-1.106000
0
VERTEX
8
2
10
1.583680
20
-1.106000
0
VERTEX
8
2
10
1.598011
20
-1.107445
0
VERTEX
8
2
10
1.611360
20
-1.111590
0
VERTEX
8
2
10
1.623441
20
-1.118148
0
VERTEX
8
2
10
1.633967
20
-1.126833
0
VERTEX
8
2
10
1.642652
20
-1.137359
0
VERTEX
8
2
10
1.649210
20
-1.149440
0
VERTEX
8
2
10
1.653355
20
-1.162789
0
VERTEX
8
2
10
1.654800
20
-1.177120
0
SEQEND
8
2
0
CIRCLE
8
0
10
1.554800
20
-1.181000
40
0.025400
0
POLYLINE
8
2
66
1
70
1
40
0
41
0
0
VERTEX
8
2
10
1.654800
20
-0.923120
0
VERTEX
8
2
10
1.654800
20
-0.930880
0
VERTEX
8
2
10
1.653355
20
-0.945211
0
VERTEX
8
2
10
1.649210
20
-0.958560
0
VERTEX
8
2
10
1.642652
20
-0.970641
0
VERTEX
8
2
10
1.633967
20
-0.981167
0
VERTEX
8
2
10
1.623441
20
-0.989852
0
VERTEX
8
2
10
1.611360
20
-0.996410
0
VERTEX
8
2
10
1.598011
20
-1.000555
0
VERTEX
8
2
10
1.583680
20
-1.002000
0
VERTEX
8
2
10
1.525920
20
-1.002000
0
VERTEX
8
2
10
1.511589
20
-1.000555
0
VERTEX
8
2
10
1.498240
20
-0.996410
0
VERTEX
8
2
10
1.486159
20
-0.989852
0
VERTEX
8
2
10
1.475633
20
-0.981167
0
VERTEX
8
2
10
1.466948
20
-0.970641
0
VERTEX
8
2
10
1.460390
20
-0.958560
0
VERTEX
8
2
10
1.456245
20
-0.945211
0
VERTEX
8
2
10
1.454800
20
-0.930880
0
VERTEX
8
2
10
1.454800
20
-0.923120
0
VERTEX
8
2
10
1.456245
20
-0.908789
0
VERTEX
8
2
10
1.460390
20
-0.895440
0
VERTEX
8
2
10
1.466948
20
-0.883359
0
VERTEX
8
2
10
1.475633
20
-0.872833
0
VERTEX
8
2
10
1.486159
20
-0.864148
0
VERTEX
8
2
10
1.498240
20
-0.857590
0
VERTEX
8
2
10
1.511589
20
-0.853445
0
VERTEX
8
2
10
1.525920
20
-0.852000
0
VERTEX
8
2
10
1.583680
20
-0.852000
0
VERTEX
8
2
10
1.598011
20
-0.853445
0
VERTEX
8
2
10
1.611360
20
-0.857590
0
VERTEX
8
2
10
1.623441
20
-0.864148
0
VERTEX
8
2
10
1.633967
20
-0.872833
0
VERTEX
8
2
10
1.642652
20
-0.883359
0
VERTEX
8
2
10
1.649210
20
-0.895440
0
VERTEX
8
2
10
1.653355
20
-0.908789
0
VERTEX
8
2
10
1.654800
20
-0.923120
0
SEQEND
8
2
0
CIRCLE
8
0
10
1.554800
20
-0.927000
40
0.025400
0
POLYLINE
8
2
66
1
70
1
40
0
41
0
0
VERTEX
8
2
10
1.654800
20
-0.669120
0
VERTEX
8
2
10
1.654800
20
-0.676880
0
VERTEX
8
2
10
1.653355
20
-0.691211
0
VERTEX
8
2
10
1.649210
20
-0.704560
0
VERTEX
8
2
10
1.642652
20
-0.716641
0
VERTEX
8
2
10
1.633967
20
-0.727167
0
VERTEX
8
2
10
1.623441
20
-0.735852
0
VERTEX
8
2
10
1.611360
20
-0.742410
0
VERTEX
8
2
10
1.598011
20
-0.746555
0
VERTEX
8
2
10
1.583680
20
-0.748000
0
VERTEX
8
2
10
1.525920
20
-0.748000
0
VERTEX
8
2
10
1.511589
20
-0.746555
0
VERTEX
8
2
10
1.498240
20
-0.742410
0
VERTEX
8
2
10
1.486159
20
-0.735852
0
VERTEX
8
2
10
1.475633
20
-0.727167
0
VERTEX
8
2
10
1.466948
20
-0.716641
0
VERTEX
8
2
10
1.460390
20
-0.704560
0
VERTEX
8
2
10
1.456245
20
-0.691211
0
VERTEX
8
2
10
1.454800
20
-0.676880
0
VERTEX
8
2
10
1.454800
20
-0.669120
0
VERTEX
8
2
10
1.456245
20
-0.654789
0
VERTEX
8
2
10
1.460390
20
-0.641440
0
VERTEX
8
2
10
1.466948
20
-0.629359
0
VERTEX
8
2
10
1.475633
20
-0.618833
0
VERTEX
8
2
10
1.486159
20
-0.610148
0
VERTEX
8
2
10
1.498240
20
-0.603590
0
VERTEX
8
2
10
1.511589
20
-0.599445
0
VERTEX
8
2
10
1.525920
20
-0.598000
0
VERTEX
8
2
10
1.583680
20
-0.598000
0
VERTEX
8
2
10
1.598011
20
-0.599445
0
VERTEX
8
2
10
1.611360
20
-0.603590
0
VERTEX
8
2
10
1.623441
20
-0.610148
0
VERTEX
8
2
10
1.633967
20
-0.618833
0
VERTEX
8
2
10
1.642652
20
-0.629359
0
VERTEX
8
2
10
1.649210
20
-0.641440
0
VERTEX
8
2
10
1.653355
20
-0.654789
0
VERTEX
8
2
10
1.654800
20
-0.669120
0
SEQEND
8
2
0
CIRCLE
8
0
10
1.554800
20
-0.673000
40
0.025400
0
POLYLINE
8
2
66
1
70
1
40
0
41
0
0
VERTEX
8
2
10
1.654800
20
-0.415120
0
VERTEX
8
2
10
1.654800
20
-0.422880
0
VERTEX
8
2
10
1.653355
20
-0.437211
0
VERTEX
8
2
10
1.649210
20
-0.450560
0
VERTEX
8
2
10
1.642652
20
-0.462641
0
VERTEX
8
2
10
1.633967
20
-0.473167
0
VERTEX
8
2
10
1.623441
20
-0.481852
0
VERTEX
8
2
10
1.611360
20
-0.488410
0
VERTEX
8
2
10
1.598011
20
-0.492555
0
VERTEX
8
2
10
1.583680
20
-0.494000
0
VERTEX
8
2
10
1.525920
20
-0.494000
0
VERTEX
8
2
10
1.511589
20
-0.492555
0
VERTEX
8
2
10
1.498240
20
-0.488410
0
VERTEX
8
2
10
1.486159
20
-0.481852
0
VERTEX
8
2
10
1.475633
20
-0.473167
0
VERTEX
8
2
10
1.466948
20
-0.462641
0
VERTEX
8
2
10
1.460390
20
-0.450560
0
VERTEX
8
2
10
1.456245
20
-0.437211
0
VERTEX
8
2
10
1.454800
20
-0.422880
0
VERTEX
8
2
10
1.454800
20
-0.415120
0
VERTEX
8
2
10
1.456245
20
-0.400789
0
VERTEX
8
2
10
1.460390
20
-0.387440
0
VERTEX
8
2
10
1.466948
20
-0.375359
0
VERTEX
8
2
10
1.475633
20
-0.364833
0
VERTEX
8
2
10
1.486159
20
-0.356148
0
VERTEX
8
2
10
1.498240
20
-0.349590
0
VERTEX
8
2
10
1.511589
20
-0.345445
0
VERTEX
8
2
10
1.525920
20
-0.344000
0
VERTEX
8
2
10
1.583680
20
-0.344000
0
VERTEX
8
2
10
1.598011
20
-0.345445
0
VERTEX
8
2
10
1.611360
20
-0.349590
0
VERTEX
8
2
10
1.623441
20
-0.356148
0
VERTEX
8
2
10
1.633967
20
-0.364833
0
VERTEX
8
2
10
1.642652
20
-0.375359
0
VERTEX
8
2
10
1.649210
20
-0.387440
0
VERTEX
8
2
10
1.653355
20
-0.400789
0
VERTEX
8
2
10
1.654800
20
-0.415120
0
SEQEND
8
2
0
CIRCLE
8
0
10
1.554800
20
-0.419000
40
0.025400
0
POLYLINE
8
3
66
1
40
0.020320
41
0.020320
0
VERTEX
8
3
10
0.250000
20
0.000000
0
VERTEX
8
3
10
0.198883
20
-0.004974
0
VERTEX
8
3
10
0.151611
20
-0.019287
0
VERTEX
8
3
10
0.109100
20
-0.042023
0
VERTEX
8
3
10
0.072266
20
-0.072266
0
VERTEX
8
3
10
0.042023
20
-0.109100
0
VERTEX
8
3
10
0.019287
20
-0.151611
0
VERTEX
8
3
10
0.004974
20
-0.198883
0
VERTEX
8
3
10
0.000000
20
-0.250000
0
SEQEND
8
3
0
POLYLINE
8
3
66
1
40
0.020320
41
0.020320
0
VERTEX
8
3
10
1.750000
20
-1.600000
0
VERTEX
8
3
10
1.801117
20
-1.595026
0
VERTEX
8
3
10
1.848389
20
-1.580713
0
VERTEX
8
3
10
1.890900
20
-1.557977
0
VERTEX
8
3
10
1.927734
20
-1.527734
0
VERTEX
8
3
10
1.957977
20
-1.490900
0
VERTEX
8
3
10
1.980713
20
-1.448389
0
VERTEX
8
3
10
1.995026
20
-1.401117
0
VERTEX
8
3
10
2.000000
20
-1.350000
0
SEQEND
8
3
0
POLYLINE
8
3
66
1
40
0.020320
41
0.020320
0
VERTEX
8
3
10
2.000000
20
-0.250000
0
VERTEX
8
3
10
1.995026
20
-0.198883
0
VERTEX
8
3
10
1.980713
20
-0.151611
0
VERTEX
8
3
10
1.957977
20
-0.109100
0
VERTEX
8
3
10
1.927734
20
-0.072266
0
VERTEX
8
3
10
1.890900
20
-0.042023
0
VERTEX
8
3
10
1.848389
20
-0.019287
0
VERTEX
8
3
10
1.801117
20
-0.004974
0
VERTEX
8
3
10
1.750000
20
0.000000
0
SEQEND
8
3
0
POLYLINE
8
3
66
1
40
0.020320
41
0.020320
0
VERTEX
8
3
10
0.000000
20
-1.350000
0
VERTEX
8
3
10
0.004974
20
-1.401117
0
VERTEX
8
3
10
0.019287
20
-1.448389
0
VERTEX
8
3
10
0.042023
20
-1.490900
0
VERTEX
8
3
10
0.072266
20
-1.527734
0
VERTEX
8
3
10
0.109100
20
-1.557977
0
VERTEX
8
3
10
0.151611
20
-1.580713
0
VERTEX
8
3
10
0.198883
20
-1.595026
0
VERTEX
8
3
10
0.250000
20
-1.600000
0
VERTEX
8
3
10
1.750000
20
-1.600000
0
SEQEND
8
3
0
POLYLINE
8
3
66
1
40
0.020320
41
0.020320
0
VERTEX
8
3
10
2.000000
20
-1.350000
0
VERTEX
8
3
10
2.000000
20
-0.250000
0
SEQEND
8
3
0
POLYLINE
8
3
66
1
40
0.020320
41
0.020320
0
VERTEX
8
3
10
1.750000
20
0.000000
0
VERTEX
8
3
10
0.250000
20
0.000000
0
SEQEND
8
3
0
POLYLINE
8
3
66
1
40
0.020320
41
0.020320
0
VERTEX
8
3
10
0.000000
20
-0.250000
0
VERTEX
8
3
10
0.000000
20
-1.350000
0
SEQEND
8
3
0
ENDSEC
0
EOF

