  0
SECTION
  2
HEADER
  9
$ACADVER
  1
AC1009
  9
$INSUNITS
 70
     5
 9
$MEASUREMENT
 70
    1
  0
ENDSEC
  0
SECTION
  2
TABLES
  0
TABLE
  2
LAYER
 70
     8
  0
LAYER
  2
0
 62
     7
 70
0
  6
CONTINUOUS
  0
LAYER
  2
1
 62
     1
 70
0
  6
CONTINUOUS
  0
LAYER
  2
2
 62
     2
 70
0
  6
CONTINUOUS
  0
LAYER
  2
3
 62
     3
 70
0
  6
CONTINUOUS
  0
LAYER
  2
4
 62
     4
 70
0
  6
CONTINUOUS
  0
LAYER
  2
5
 62
     5
 70
0
  6
CONTINUOUS
  0
LAYER
  2
6
 62
     6
 70
0
  6
CONTINUOUS
  0
LAYER
  2
7
 62
     7
 70
0
  6
CONTINUOUS
  0
ENDTAB
  0
TABLE
  2
STYLE
 70
     1
  0
STYLE
 70
     0
  2
STANDARD
  3
TXT
 40
0.00
 41
1.00
 42
1.00
 50
0.00
 71
     0
  0
ENDTAB
  0
ENDSEC
  0
SECTION
  2
BLOCKS
  0
BLOCK
  8
0
  2
EPAD
 70
0
 10
0.0
 20
0.0
  0
POLYLINE
  8
0
 66
1
 70
1
 40
0.5
 41
0.5
  0
VERTEX
  8
0
 10
-0.25
 20
0.0
 42
1.0
  0
VERTEX
  8
0
 10
0.25
 20
0.0
 42
1.0
  0
SEQEND
  8
0
  0
ENDBLK
  8
0
  0
BLOCK
  8
0
  2
RPAD
 70
0
 10
0.0
 20
0.0
  0
TRACE
  8
0
 10
-0.5
 20
-0.5
 11
-0.5
 21
0.5
 12
0.5
 22
-0.5
 13
0.5
 23
0.5
  0
ENDBLK
  8
0
  0
ENDSEC
0
SECTION
2
ENTITIES
0
INSERT
8
1
2
EPAD
10
0.497901
20
-0.467145
41
0.050000
42
0.050000
0
CIRCLE
8
0
10
0.497901
20
-0.467145
40
0.025400
0
INSERT
8
1
2
EPAD
10
0.495300
20
-0.596900
41
0.050000
42
0.050000
0
CIRCLE
8
0
10
0.495300
20
-0.596900
40
0.025400
0
INSERT
8
1
2
EPAD
10
0.505117
20
-1.228833
41
0.050000
42
0.050000
0
CIRCLE
8
0
10
0.505117
20
-1.228833
40
0.025400
0
INSERT
8
1
2
EPAD
10
0.498972
20
-0.723952
41
0.050000
42
0.050000
0
CIRCLE
8
0
10
0.498972
20
-0.723952
40
0.025400
0
INSERT
8
1
2
EPAD
10
0.508000
20
-0.850900
41
0.050000
42
0.050000
0
CIRCLE
8
0
10
0.508000
20
-0.850900
40
0.025400
0
INSERT
8
1
2
EPAD
10
0.511987
20
-1.106168
41
0.050000
42
0.050000
0
CIRCLE
8
0
10
0.511987
20
-1.106168
40
0.025400
0
INSERT
8
1
2
EPAD
10
0.503643
20
-0.976858
41
0.050000
42
0.050000
0
CIRCLE
8
0
10
0.503643
20
-0.976858
40
0.025400
0
INSERT
8
1
2
EPAD
10
0.691288
20
-1.720145
41
0.050000
42
0.050000
0
CIRCLE
8
0
10
0.691288
20
-1.720145
40
0.025400
0
INSERT
8
1
2
EPAD
10
0.614680
20
-1.991360
41
0.050000
42
0.050000
0
CIRCLE
8
0
10
0.614680
20
-1.991360
40
0.025400
0
INSERT
8
1
2
EPAD
10
0.803901
20
-1.502625
41
0.050000
42
0.050000
0
CIRCLE
8
0
10
0.803901
20
-1.502625
40
0.025400
0
INSERT
8
1
2
EPAD
10
0.901700
20
-1.524000
41
0.050000
42
0.050000
0
CIRCLE
8
0
10
0.901700
20
-1.524000
40
0.025400
0
INSERT
8
1
2
EPAD
10
1.198548
20
-3.807420
41
0.050000
42
0.050000
0
CIRCLE
8
0
10
1.198548
20
-3.807420
40
0.025400
0
INSERT
8
1
2
EPAD
10
0.530766
20
-5.464400
41
0.050000
42
0.050000
0
CIRCLE
8
0
10
0.530766
20
-5.464400
40
0.025400
0
INSERT
8
1
2
EPAD
10
0.625410
20
-5.459076
41
0.050000
42
0.050000
0
CIRCLE
8
0
10
0.625410
20
-5.459076
40
0.025400
0
INSERT
8
1
2
EPAD
10
1.281181
20
-3.806803
41
0.050000
42
0.050000
0
CIRCLE
8
0
10
1.281181
20
-3.806803
40
0.025400
0
INSERT
8
1
2
EPAD
10
0.527444
20
-5.788832
41
0.050000
42
0.050000
0
CIRCLE
8
0
10
0.527444
20
-5.788832
40
0.025400
0
INSERT
8
1
2
EPAD
10
0.155982
20
-5.904531
41
0.050000
42
0.050000
0
CIRCLE
8
0
10
0.155982
20
-5.904531
40
0.025400
0
INSERT
8
1
2
EPAD
10
1.815182
20
-5.774161
41
0.050000
42
0.050000
0
CIRCLE
8
0
10
1.815182
20
-5.774161
40
0.025400
0
INSERT
8
1
2
EPAD
10
1.340248
20
-5.867432
41
0.050000
42
0.050000
0
CIRCLE
8
0
10
1.340248
20
-5.867432
40
0.025400
0
INSERT
8
1
2
EPAD
10
2.021281
20
-5.797027
41
0.050000
42
0.050000
0
CIRCLE
8
0
10
2.021281
20
-5.797027
40
0.025400
0
INSERT
8
1
2
EPAD
10
2.400300
20
-5.880100
41
0.050000
42
0.050000
0
CIRCLE
8
0
10
2.400300
20
-5.880100
40
0.025400
0
INSERT
8
1
2
EPAD
10
0.586255
20
-3.888879
41
0.050000
42
0.050000
0
CIRCLE
8
0
10
0.586255
20
-3.888879
40
0.025400
0
INSERT
8
1
2
EPAD
10
1.072921
20
-4.781791
41
0.050000
42
0.050000
0
CIRCLE
8
0
10
1.072921
20
-4.781791
40
0.025400
0
INSERT
8
1
2
EPAD
10
1.307649
20
-1.172964
41
0.050000
42
0.050000
0
CIRCLE
8
0
10
1.307649
20
-1.172964
40
0.025400
0
INSERT
8
1
2
EPAD
10
1.189816
20
-2.192972
41
0.050000
42
0.050000
0
CIRCLE
8
0
10
1.189816
20
-2.192972
40
0.025400
0
INSERT
8
1
2
EPAD
10
2.027459
20
-0.724988
41
0.050000
42
0.050000
0
CIRCLE
8
0
10
2.027459
20
-0.724988
40
0.025400
0
INSERT
8
1
2
EPAD
10
2.019221
20
-0.209411
41
0.050000
42
0.050000
0
CIRCLE
8
0
10
2.019221
20
-0.209411
40
0.025400
0
INSERT
8
1
2
EPAD
10
1.864911
20
-2.816187
41
0.050000
42
0.050000
0
CIRCLE
8
0
10
1.864911
20
-2.816187
40
0.025400
0
INSERT
8
1
2
EPAD
10
1.848851
20
-3.810694
41
0.050000
42
0.050000
0
CIRCLE
8
0
10
1.848851
20
-3.810694
40
0.025400
0
INSERT
8
1
2
EPAD
10
1.889805
20
-5.444903
41
0.050000
42
0.050000
0
CIRCLE
8
0
10
1.889805
20
-5.444903
40
0.025400
0
INSERT
8
1
2
EPAD
10
1.964017
20
-5.354049
41
0.050000
42
0.050000
0
CIRCLE
8
0
10
1.964017
20
-5.354049
40
0.025400
0
INSERT
8
1
2
EPAD
10
2.176092
20
-5.130794
41
0.050000
42
0.050000
0
CIRCLE
8
0
10
2.176092
20
-5.130794
40
0.025400
0
INSERT
8
1
2
EPAD
10
2.049300
20
-5.163358
41
0.050000
42
0.050000
0
CIRCLE
8
0
10
2.049300
20
-5.163358
40
0.025400
0
INSERT
8
1
2
EPAD
10
1.054100
20
-1.001633
41
0.050000
42
0.050000
0
CIRCLE
8
0
10
1.054100
20
-1.001633
40
0.025400
0
INSERT
8
1
2
EPAD
10
1.473200
20
-2.781300
41
0.050000
42
0.050000
0
CIRCLE
8
0
10
1.473200
20
-2.781300
40
0.025400
0
INSERT
8
1
2
EPAD
10
1.778000
20
-2.641600
41
0.050000
42
0.050000
0
CIRCLE
8
0
10
1.778000
20
-2.641600
40
0.025400
0
INSERT
8
1
2
EPAD
10
2.014863
20
-0.337686
41
0.050000
42
0.050000
0
CIRCLE
8
0
10
2.014863
20
-0.337686
40
0.025400
0
INSERT
8
1
2
EPAD
10
1.727200
20
-1.625600
41
0.050000
42
0.050000
0
CIRCLE
8
0
10
1.727200
20
-1.625600
40
0.025400
0
INSERT
8
1
2
EPAD
10
1.816100
20
-1.651000
41
0.050000
42
0.050000
0
CIRCLE
8
0
10
1.816100
20
-1.651000
40
0.025400
0
INSERT
8
1
2
EPAD
10
1.879600
20
-1.714500
41
0.050000
42
0.050000
0
CIRCLE
8
0
10
1.879600
20
-1.714500
40
0.025400
0
INSERT
8
1
2
EPAD
10
1.828800
20
-1.549400
41
0.050000
42
0.050000
0
CIRCLE
8
0
10
1.828800
20
-1.549400
40
0.025400
0
INSERT
8
1
2
EPAD
10
1.930400
20
-1.574800
41
0.050000
42
0.050000
0
CIRCLE
8
0
10
1.930400
20
-1.574800
40
0.025400
0
INSERT
8
1
2
EPAD
10
1.981200
20
-1.485900
41
0.050000
42
0.050000
0
CIRCLE
8
0
10
1.981200
20
-1.485900
40
0.025400
0
INSERT
8
1
2
EPAD
10
1.981200
20
-1.371600
41
0.050000
42
0.050000
0
CIRCLE
8
0
10
1.981200
20
-1.371600
40
0.025400
0
INSERT
8
1
2
EPAD
10
2.032000
20
-1.231900
41
0.050000
42
0.050000
0
CIRCLE
8
0
10
2.032000
20
-1.231900
40
0.025400
0
INSERT
8
1
2
EPAD
10
2.042346
20
-1.101349
41
0.050000
42
0.050000
0
CIRCLE
8
0
10
2.042346
20
-1.101349
40
0.025400
0
INSERT
8
1
2
EPAD
10
2.040802
20
-0.979367
41
0.050000
42
0.050000
0
CIRCLE
8
0
10
2.040802
20
-0.979367
40
0.025400
0
INSERT
8
1
2
EPAD
10
2.032000
20
-0.850900
41
0.050000
42
0.050000
0
CIRCLE
8
0
10
2.032000
20
-0.850900
40
0.025400
0
INSERT
8
1
2
EPAD
10
2.113737
20
-4.262772
41
0.050000
42
0.050000
0
CIRCLE
8
0
10
2.113737
20
-4.262772
40
0.025400
0
INSERT
8
1
2
EPAD
10
1.663700
20
-1.455981
41
0.050000
42
0.050000
0
CIRCLE
8
0
10
1.663700
20
-1.455981
40
0.025400
0
INSERT
8
1
2
EPAD
10
1.282700
20
-2.679700
41
0.050000
42
0.050000
0
CIRCLE
8
0
10
1.282700
20
-2.679700
40
0.025400
0
INSERT
8
1
2
EPAD
10
1.200432
20
-2.358990
41
0.050000
42
0.050000
0
CIRCLE
8
0
10
1.200432
20
-2.358990
40
0.025400
0
INSERT
8
1
2
EPAD
10
0.772140
20
-5.784790
41
0.050000
42
0.050000
0
CIRCLE
8
0
10
0.772140
20
-5.784790
40
0.025400
0
INSERT
8
1
2
EPAD
10
1.210272
20
-5.990477
41
0.050000
42
0.050000
0
CIRCLE
8
0
10
1.210272
20
-5.990477
40
0.025400
0
INSERT
8
1
2
EPAD
10
0.782541
20
-2.787016
41
0.050000
42
0.050000
0
CIRCLE
8
0
10
0.782541
20
-2.787016
40
0.025400
0
INSERT
8
1
2
EPAD
10
0.970280
20
-1.430020
41
0.050000
42
0.050000
0
CIRCLE
8
0
10
0.970280
20
-1.430020
40
0.025400
0
INSERT
8
1
2
EPAD
10
1.069340
20
-1.427480
41
0.050000
42
0.050000
0
CIRCLE
8
0
10
1.069340
20
-1.427480
40
0.025400
0
INSERT
8
1
2
EPAD
10
1.687502
20
-1.319202
41
0.050000
42
0.050000
0
CIRCLE
8
0
10
1.687502
20
-1.319202
40
0.025400
0
INSERT
8
1
2
EPAD
10
1.973580
20
-4.323080
41
0.050000
42
0.050000
0
CIRCLE
8
0
10
1.973580
20
-4.323080
40
0.025400
0
INSERT
8
1
2
EPAD
10
0.585457
20
-0.090137
41
0.050000
42
0.050000
0
CIRCLE
8
0
10
0.585457
20
-0.090137
40
0.025400
0
INSERT
8
1
2
EPAD
10
0.260355
20
-0.286547
41
0.050000
42
0.050000
0
CIRCLE
8
0
10
0.260355
20
-0.286547
40
0.025400
0
INSERT
8
1
2
EPAD
10
0.571500
20
-1.358900
41
0.050000
42
0.050000
0
CIRCLE
8
0
10
0.571500
20
-1.358900
40
0.025400
0
INSERT
8
1
2
EPAD
10
0.568397
20
-1.765523
41
0.050000
42
0.050000
0
CIRCLE
8
0
10
0.568397
20
-1.765523
40
0.025400
0
INSERT
8
1
2
EPAD
10
0.746760
20
-1.592580
41
0.050000
42
0.050000
0
CIRCLE
8
0
10
0.746760
20
-1.592580
40
0.025400
0
INSERT
8
1
2
EPAD
10
0.537731
20
-1.485151
41
0.050000
42
0.050000
0
CIRCLE
8
0
10
0.537731
20
-1.485151
40
0.025400
0
INSERT
8
1
2
EPAD
10
0.961067
20
-4.717505
41
0.050000
42
0.050000
0
CIRCLE
8
0
10
0.961067
20
-4.717505
40
0.025400
0
INSERT
8
1
2
EPAD
10
1.214120
20
-3.647440
41
0.050000
42
0.050000
0
CIRCLE
8
0
10
1.214120
20
-3.647440
40
0.025400
0
INSERT
8
1
2
EPAD
10
1.492265
20
-4.499672
41
0.050000
42
0.050000
0
CIRCLE
8
0
10
1.492265
20
-4.499672
40
0.025400
0
INSERT
8
1
2
EPAD
10
1.411347
20
-3.238500
41
0.050000
42
0.050000
0
CIRCLE
8
0
10
1.411347
20
-3.238500
40
0.025400
0
INSERT
8
1
2
EPAD
10
0.499941
20
-0.337596
41
0.050000
42
0.050000
0
CIRCLE
8
0
10
0.499941
20
-0.337596
40
0.025400
0
INSERT
8
1
2
EPAD
10
1.028932
20
-1.161139
41
0.050000
42
0.050000
0
CIRCLE
8
0
10
1.028932
20
-1.161139
40
0.025400
0
INSERT
8
1
2
EPAD
10
1.777013
20
-4.479159
41
0.050000
42
0.050000
0
CIRCLE
8
0
10
1.777013
20
-4.479159
40
0.025400
0
INSERT
8
1
2
EPAD
10
1.164466
20
-1.215888
41
0.050000
42
0.050000
0
CIRCLE
8
0
10
1.164466
20
-1.215888
40
0.025400
0
INSERT
8
1
2
EPAD
10
1.164430
20
-1.312079
41
0.050000
42
0.050000
0
CIRCLE
8
0
10
1.164430
20
-1.312079
40
0.025400
0
INSERT
8
1
2
EPAD
10
1.250668
20
-3.574605
41
0.050000
42
0.050000
0
CIRCLE
8
0
10
1.250668
20
-3.574605
40
0.025400
0
INSERT
8
1
2
EPAD
10
1.394460
20
-3.812540
41
0.050000
42
0.050000
0
CIRCLE
8
0
10
1.394460
20
-3.812540
40
0.025400
0
INSERT
8
1
2
EPAD
10
1.351750
20
-3.511032
41
0.050000
42
0.050000
0
CIRCLE
8
0
10
1.351750
20
-3.511032
40
0.025400
0
INSERT
8
1
2
EPAD
10
1.361029
20
-4.077702
41
0.050000
42
0.050000
0
CIRCLE
8
0
10
1.361029
20
-4.077702
40
0.025400
0
INSERT
8
1
2
EPAD
10
1.361463
20
-4.163669
41
0.050000
42
0.050000
0
CIRCLE
8
0
10
1.361463
20
-4.163669
40
0.025400
0
INSERT
8
1
2
EPAD
10
1.361148
20
-4.252265
41
0.050000
42
0.050000
0
CIRCLE
8
0
10
1.361148
20
-4.252265
40
0.025400
0
INSERT
8
1
2
EPAD
10
1.176820
20
-4.173606
41
0.050000
42
0.050000
0
CIRCLE
8
0
10
1.176820
20
-4.173606
40
0.025400
0
INSERT
8
1
2
EPAD
10
1.177766
20
-4.087206
41
0.050000
42
0.050000
0
CIRCLE
8
0
10
1.177766
20
-4.087206
40
0.025400
0
INSERT
8
1
2
EPAD
10
1.177415
20
-4.261899
41
0.050000
42
0.050000
0
CIRCLE
8
0
10
1.177415
20
-4.261899
40
0.025400
0
INSERT
8
1
2
EPAD
10
1.420528
20
-4.848560
41
0.050000
42
0.050000
0
CIRCLE
8
0
10
1.420528
20
-4.848560
40
0.025400
0
INSERT
8
1
2
EPAD
10
1.401857
20
-4.639587
41
0.050000
42
0.050000
0
CIRCLE
8
0
10
1.401857
20
-4.639587
40
0.025400
0
INSERT
8
1
2
EPAD
10
1.996867
20
-4.601401
41
0.050000
42
0.050000
0
CIRCLE
8
0
10
1.996867
20
-4.601401
40
0.025400
0
INSERT
8
1
2
EPAD
10
1.196082
20
-0.860622
41
0.050000
42
0.050000
0
CIRCLE
8
0
10
1.196082
20
-0.860622
40
0.025400
0
INSERT
8
1
2
EPAD
10
1.046013
20
-0.719573
41
0.050000
42
0.050000
0
CIRCLE
8
0
10
1.046013
20
-0.719573
40
0.025400
0
INSERT
8
1
2
EPAD
10
1.889194
20
-0.090387
41
0.050000
42
0.050000
0
CIRCLE
8
0
10
1.889194
20
-0.090387
40
0.025400
0
INSERT
8
1
2
EPAD
10
1.058672
20
-0.859917
41
0.050000
42
0.050000
0
CIRCLE
8
0
10
1.058672
20
-0.859917
40
0.025400
0
INSERT
8
1
2
EPAD
10
1.323940
20
-2.509380
41
0.050000
42
0.050000
0
CIRCLE
8
0
10
1.323940
20
-2.509380
40
0.025400
0
INSERT
8
1
2
EPAD
10
1.324666
20
-2.451932
41
0.050000
42
0.050000
0
CIRCLE
8
0
10
1.324666
20
-2.451932
40
0.025400
0
INSERT
8
1
2
EPAD
10
1.324126
20
-2.563830
41
0.050000
42
0.050000
0
CIRCLE
8
0
10
1.324126
20
-2.563830
40
0.025400
0
INSERT
8
1
2
EPAD
10
1.364402
20
-2.175613
41
0.050000
42
0.050000
0
CIRCLE
8
0
10
1.364402
20
-2.175613
40
0.025400
0
INSERT
8
1
2
EPAD
10
1.522476
20
-2.139061
41
0.050000
42
0.050000
0
CIRCLE
8
0
10
1.522476
20
-2.139061
40
0.025400
0
INSERT
8
1
2
EPAD
10
1.567180
20
-2.231390
41
0.050000
42
0.050000
0
CIRCLE
8
0
10
1.567180
20
-2.231390
40
0.025400
0
INSERT
8
1
2
EPAD
10
1.546850
20
-1.075094
41
0.050000
42
0.050000
0
CIRCLE
8
0
10
1.546850
20
-1.075094
40
0.025400
0
INSERT
8
1
2
EPAD
10
1.533706
20
-1.319893
41
0.050000
42
0.050000
0
CIRCLE
8
0
10
1.533706
20
-1.319893
40
0.025400
0
INSERT
8
1
2
EPAD
10
1.891623
20
-0.793258
41
0.050000
42
0.050000
0
CIRCLE
8
0
10
1.891623
20
-0.793258
40
0.025400
0
INSERT
8
1
2
EPAD
10
1.941757
20
-0.954546
41
0.050000
42
0.050000
0
CIRCLE
8
0
10
1.941757
20
-0.954546
40
0.025400
0
INSERT
8
1
2
EPAD
10
1.896636
20
-1.131730
41
0.050000
42
0.050000
0
CIRCLE
8
0
10
1.896636
20
-1.131730
40
0.025400
0
INSERT
8
1
2
EPAD
10
1.881229
20
-1.291305
41
0.050000
42
0.050000
0
CIRCLE
8
0
10
1.881229
20
-1.291305
40
0.025400
0
INSERT
8
1
2
EPAD
10
1.017444
20
-2.505364
41
0.050000
42
0.050000
0
CIRCLE
8
0
10
1.017444
20
-2.505364
40
0.025400
0
INSERT
8
1
2
EPAD
10
1.019351
20
-2.891407
41
0.050000
42
0.050000
0
CIRCLE
8
0
10
1.019351
20
-2.891407
40
0.025400
0
INSERT
8
1
2
EPAD
10
1.161075
20
-2.869893
41
0.050000
42
0.050000
0
CIRCLE
8
0
10
1.161075
20
-2.869893
40
0.025400
0
INSERT
8
1
2
EPAD
10
1.483442
20
-2.888893
41
0.050000
42
0.050000
0
CIRCLE
8
0
10
1.483442
20
-2.888893
40
0.025400
0
INSERT
8
1
2
EPAD
10
1.520389
20
-3.012086
41
0.050000
42
0.050000
0
CIRCLE
8
0
10
1.520389
20
-3.012086
40
0.025400
0
INSERT
8
1
2
EPAD
10
0.657731
20
-4.487452
41
0.050000
42
0.050000
0
CIRCLE
8
0
10
0.657731
20
-4.487452
40
0.025400
0
INSERT
8
1
2
EPAD
10
0.760516
20
-4.505242
41
0.050000
42
0.050000
0
CIRCLE
8
0
10
0.760516
20
-4.505242
40
0.025400
0
INSERT
8
1
2
EPAD
10
0.954722
20
-4.483499
41
0.050000
42
0.050000
0
CIRCLE
8
0
10
0.954722
20
-4.483499
40
0.025400
0
INSERT
8
1
2
EPAD
10
1.018963
20
-4.420247
41
0.050000
42
0.050000
0
CIRCLE
8
0
10
1.018963
20
-4.420247
40
0.025400
0
INSERT
8
1
2
EPAD
10
0.489909
20
-5.102504
41
0.050000
42
0.050000
0
CIRCLE
8
0
10
0.489909
20
-5.102504
40
0.025400
0
INSERT
8
1
2
EPAD
10
0.537749
20
-5.171484
41
0.050000
42
0.050000
0
CIRCLE
8
0
10
0.537749
20
-5.171484
40
0.025400
0
INSERT
8
1
2
EPAD
10
1.044990
20
-5.358109
41
0.050000
42
0.050000
0
CIRCLE
8
0
10
1.044990
20
-5.358109
40
0.025400
0
INSERT
8
1
2
EPAD
10
1.483726
20
-5.466123
41
0.050000
42
0.050000
0
CIRCLE
8
0
10
1.483726
20
-5.466123
40
0.025400
0
INSERT
8
1
2
EPAD
10
1.508224
20
-5.284616
41
0.050000
42
0.050000
0
CIRCLE
8
0
10
1.508224
20
-5.284616
40
0.025400
0
INSERT
8
1
2
EPAD
10
1.475922
20
-5.091859
41
0.050000
42
0.050000
0
CIRCLE
8
0
10
1.475922
20
-5.091859
40
0.025400
0
INSERT
8
1
2
EPAD
10
1.964055
20
-4.714875
41
0.050000
42
0.050000
0
CIRCLE
8
0
10
1.964055
20
-4.714875
40
0.025400
0
INSERT
8
1
2
EPAD
10
0.776420
20
-3.661988
41
0.050000
42
0.050000
0
CIRCLE
8
0
10
0.776420
20
-3.661988
40
0.025400
0
INSERT
8
1
2
EPAD
10
0.720789
20
-4.271354
41
0.050000
42
0.050000
0
CIRCLE
8
0
10
0.720789
20
-4.271354
40
0.025400
0
INSERT
8
1
2
EPAD
10
1.929720
20
-3.762088
41
0.050000
42
0.050000
0
CIRCLE
8
0
10
1.929720
20
-3.762088
40
0.025400
0
INSERT
8
1
2
EPAD
10
1.926483
20
-3.599863
41
0.050000
42
0.050000
0
CIRCLE
8
0
10
1.926483
20
-3.599863
40
0.025400
0
POLYLINE
8
2
66
1
70
1
40
0
41
0
0
VERTEX
8
2
10
0.212000
20
-0.112800
0
VERTEX
8
2
10
0.212000
20
-0.141200
0
VERTEX
8
2
10
0.210968
20
-0.151437
0
VERTEX
8
2
10
0.208007
20
-0.160972
0
VERTEX
8
2
10
0.203323
20
-0.169601
0
VERTEX
8
2
10
0.197119
20
-0.177119
0
VERTEX
8
2
10
0.189601
20
-0.183323
0
VERTEX
8
2
10
0.180972
20
-0.188007
0
VERTEX
8
2
10
0.171437
20
-0.190968
0
VERTEX
8
2
10
0.161200
20
-0.192000
0
VERTEX
8
2
10
0.092800
20
-0.192000
0
VERTEX
8
2
10
0.082563
20
-0.190968
0
VERTEX
8
2
10
0.073028
20
-0.188007
0
VERTEX
8
2
10
0.064399
20
-0.183323
0
VERTEX
8
2
10
0.056881
20
-0.177119
0
VERTEX
8
2
10
0.050677
20
-0.169601
0
VERTEX
8
2
10
0.045993
20
-0.160972
0
VERTEX
8
2
10
0.043032
20
-0.151437
0
VERTEX
8
2
10
0.042000
20
-0.141200
0
VERTEX
8
2
10
0.042000
20
-0.112800
0
VERTEX
8
2
10
0.043032
20
-0.102563
0
VERTEX
8
2
10
0.045993
20
-0.093028
0
VERTEX
8
2
10
0.050677
20
-0.084399
0
VERTEX
8
2
10
0.056881
20
-0.076881
0
VERTEX
8
2
10
0.064399
20
-0.070677
0
VERTEX
8
2
10
0.073028
20
-0.065993
0
VERTEX
8
2
10
0.082563
20
-0.063032
0
VERTEX
8
2
10
0.092800
20
-0.062000
0
VERTEX
8
2
10
0.161200
20
-0.062000
0
VERTEX
8
2
10
0.171437
20
-0.063032
0
VERTEX
8
2
10
0.180972
20
-0.065993
0
VERTEX
8
2
10
0.189601
20
-0.070677
0
VERTEX
8
2
10
0.197119
20
-0.076881
0
VERTEX
8
2
10
0.203323
20
-0.084399
0
VERTEX
8
2
10
0.208007
20
-0.093028
0
VERTEX
8
2
10
0.210968
20
-0.102563
0
VERTEX
8
2
10
0.212000
20
-0.112800
0
SEQEND
8
2
0
POLYLINE
8
2
66
1
70
1
40
0
41
0
0
VERTEX
8
2
10
0.212000
20
-0.366800
0
VERTEX
8
2
10
0.212000
20
-0.395200
0
VERTEX
8
2
10
0.210968
20
-0.405437
0
VERTEX
8
2
10
0.208007
20
-0.414972
0
VERTEX
8
2
10
0.203323
20
-0.423601
0
VERTEX
8
2
10
0.197119
20
-0.431119
0
VERTEX
8
2
10
0.189601
20
-0.437323
0
VERTEX
8
2
10
0.180972
20
-0.442007
0
VERTEX
8
2
10
0.171437
20
-0.444968
0
VERTEX
8
2
10
0.161200
20
-0.446000
0
VERTEX
8
2
10
0.092800
20
-0.446000
0
VERTEX
8
2
10
0.082563
20
-0.444968
0
VERTEX
8
2
10
0.073028
20
-0.442007
0
VERTEX
8
2
10
0.064399
20
-0.437323
0
VERTEX
8
2
10
0.056881
20
-0.431119
0
VERTEX
8
2
10
0.050677
20
-0.423601
0
VERTEX
8
2
10
0.045993
20
-0.414972
0
VERTEX
8
2
10
0.043032
20
-0.405437
0
VERTEX
8
2
10
0.042000
20
-0.395200
0
VERTEX
8
2
10
0.042000
20
-0.366800
0
VERTEX
8
2
10
0.043032
20
-0.356563
0
VERTEX
8
2
10
0.045993
20
-0.347028
0
VERTEX
8
2
10
0.050677
20
-0.338399
0
VERTEX
8
2
10
0.056881
20
-0.330881
0
VERTEX
8
2
10
0.064399
20
-0.324677
0
VERTEX
8
2
10
0.073028
20
-0.319993
0
VERTEX
8
2
10
0.082563
20
-0.317032
0
VERTEX
8
2
10
0.092800
20
-0.316000
0
VERTEX
8
2
10
0.161200
20
-0.316000
0
VERTEX
8
2
10
0.171437
20
-0.317032
0
VERTEX
8
2
10
0.180972
20
-0.319993
0
VERTEX
8
2
10
0.189601
20
-0.324677
0
VERTEX
8
2
10
0.197119
20
-0.330881
0
VERTEX
8
2
10
0.203323
20
-0.338399
0
VERTEX
8
2
10
0.208007
20
-0.347028
0
VERTEX
8
2
10
0.210968
20
-0.356563
0
VERTEX
8
2
10
0.212000
20
-0.366800
0
SEQEND
8
2
0
POLYLINE
8
2
66
1
70
1
40
0
41
0
0
VERTEX
8
2
10
0.212000
20
-0.620800
0
VERTEX
8
2
10
0.212000
20
-0.649200
0
VERTEX
8
2
10
0.210968
20
-0.659437
0
VERTEX
8
2
10
0.208007
20
-0.668972
0
VERTEX
8
2
10
0.203323
20
-0.677601
0
VERTEX
8
2
10
0.197119
20
-0.685119
0
VERTEX
8
2
10
0.189601
20
-0.691323
0
VERTEX
8
2
10
0.180972
20
-0.696007
0
VERTEX
8
2
10
0.171437
20
-0.698968
0
VERTEX
8
2
10
0.161200
20
-0.700000
0
VERTEX
8
2
10
0.092800
20
-0.700000
0
VERTEX
8
2
10
0.082563
20
-0.698968
0
VERTEX
8
2
10
0.073028
20
-0.696007
0
VERTEX
8
2
10
0.064399
20
-0.691323
0
VERTEX
8
2
10
0.056881
20
-0.685119
0
VERTEX
8
2
10
0.050677
20
-0.677601
0
VERTEX
8
2
10
0.045993
20
-0.668972
0
VERTEX
8
2
10
0.043032
20
-0.659437
0
VERTEX
8
2
10
0.042000
20
-0.649200
0
VERTEX
8
2
10
0.042000
20
-0.620800
0
VERTEX
8
2
10
0.043032
20
-0.610563
0
VERTEX
8
2
10
0.045993
20
-0.601028
0
VERTEX
8
2
10
0.050677
20
-0.592399
0
VERTEX
8
2
10
0.056881
20
-0.584881
0
VERTEX
8
2
10
0.064399
20
-0.578677
0
VERTEX
8
2
10
0.073028
20
-0.573993
0
VERTEX
8
2
10
0.082563
20
-0.571032
0
VERTEX
8
2
10
0.092800
20
-0.570000
0
VERTEX
8
2
10
0.161200
20
-0.570000
0
VERTEX
8
2
10
0.171437
20
-0.571032
0
VERTEX
8
2
10
0.180972
20
-0.573993
0
VERTEX
8
2
10
0.189601
20
-0.578677
0
VERTEX
8
2
10
0.197119
20
-0.584881
0
VERTEX
8
2
10
0.203323
20
-0.592399
0
VERTEX
8
2
10
0.208007
20
-0.601028
0
VERTEX
8
2
10
0.210968
20
-0.610563
0
VERTEX
8
2
10
0.212000
20
-0.620800
0
SEQEND
8
2
0
POLYLINE
8
2
66
1
70
1
40
0
41
0
0
VERTEX
8
2
10
0.212000
20
-0.874800
0
VERTEX
8
2
10
0.212000
20
-0.903200
0
VERTEX
8
2
10
0.210968
20
-0.913437
0
VERTEX
8
2
10
0.208007
20
-0.922972
0
VERTEX
8
2
10
0.203323
20
-0.931601
0
VERTEX
8
2
10
0.197119
20
-0.939119
0
VERTEX
8
2
10
0.189601
20
-0.945323
0
VERTEX
8
2
10
0.180972
20
-0.950007
0
VERTEX
8
2
10
0.171437
20
-0.952968
0
VERTEX
8
2
10
0.161200
20
-0.954000
0
VERTEX
8
2
10
0.092800
20
-0.954000
0
VERTEX
8
2
10
0.082563
20
-0.952968
0
VERTEX
8
2
10
0.073028
20
-0.950007
0
VERTEX
8
2
10
0.064399
20
-0.945323
0
VERTEX
8
2
10
0.056881
20
-0.939119
0
VERTEX
8
2
10
0.050677
20
-0.931601
0
VERTEX
8
2
10
0.045993
20
-0.922972
0
VERTEX
8
2
10
0.043032
20
-0.913437
0
VERTEX
8
2
10
0.042000
20
-0.903200
0
VERTEX
8
2
10
0.042000
20
-0.874800
0
VERTEX
8
2
10
0.043032
20
-0.864563
0
VERTEX
8
2
10
0.045993
20
-0.855028
0
VERTEX
8
2
10
0.050677
20
-0.846399
0
VERTEX
8
2
10
0.056881
20
-0.838881
0
VERTEX
8
2
10
0.064399
20
-0.832677
0
VERTEX
8
2
10
0.073028
20
-0.827993
0
VERTEX
8
2
10
0.082563
20
-0.825032
0
VERTEX
8
2
10
0.092800
20
-0.824000
0
VERTEX
8
2
10
0.161200
20
-0.824000
0
VERTEX
8
2
10
0.171437
20
-0.825032
0
VERTEX
8
2
10
0.180972
20
-0.827993
0
VERTEX
8
2
10
0.189601
20
-0.832677
0
VERTEX
8
2
10
0.197119
20
-0.838881
0
VERTEX
8
2
10
0.203323
20
-0.846399
0
VERTEX
8
2
10
0.208007
20
-0.855028
0
VERTEX
8
2
10
0.210968
20
-0.864563
0
VERTEX
8
2
10
0.212000
20
-0.874800
0
SEQEND
8
2
0
POLYLINE
8
2
66
1
70
1
40
0
41
0
0
VERTEX
8
2
10
0.212000
20
-1.128800
0
VERTEX
8
2
10
0.212000
20
-1.157200
0
VERTEX
8
2
10
0.210968
20
-1.167437
0
VERTEX
8
2
10
0.208007
20
-1.176972
0
VERTEX
8
2
10
0.203323
20
-1.185601
0
VERTEX
8
2
10
0.197119
20
-1.193119
0
VERTEX
8
2
10
0.189601
20
-1.199323
0
VERTEX
8
2
10
0.180972
20
-1.204007
0
VERTEX
8
2
10
0.171437
20
-1.206968
0
VERTEX
8
2
10
0.161200
20
-1.208000
0
VERTEX
8
2
10
0.092800
20
-1.208000
0
VERTEX
8
2
10
0.082563
20
-1.206968
0
VERTEX
8
2
10
0.073028
20
-1.204007
0
VERTEX
8
2
10
0.064399
20
-1.199323
0
VERTEX
8
2
10
0.056881
20
-1.193119
0
VERTEX
8
2
10
0.050677
20
-1.185601
0
VERTEX
8
2
10
0.045993
20
-1.176972
0
VERTEX
8
2
10
0.043032
20
-1.167437
0
VERTEX
8
2
10
0.042000
20
-1.157200
0
VERTEX
8
2
10
0.042000
20
-1.128800
0
VERTEX
8
2
10
0.043032
20
-1.118563
0
VERTEX
8
2
10
0.045993
20
-1.109028
0
VERTEX
8
2
10
0.050677
20
-1.100399
0
VERTEX
8
2
10
0.056881
20
-1.092881
0
VERTEX
8
2
10
0.064399
20
-1.086677
0
VERTEX
8
2
10
0.073028
20
-1.081993
0
VERTEX
8
2
10
0.082563
20
-1.079032
0
VERTEX
8
2
10
0.092800
20
-1.078000
0
VERTEX
8
2
10
0.161200
20
-1.078000
0
VERTEX
8
2
10
0.171437
20
-1.079032
0
VERTEX
8
2
10
0.180972
20
-1.081993
0
VERTEX
8
2
10
0.189601
20
-1.086677
0
VERTEX
8
2
10
0.197119
20
-1.092881
0
VERTEX
8
2
10
0.203323
20
-1.100399
0
VERTEX
8
2
10
0.208007
20
-1.109028
0
VERTEX
8
2
10
0.210968
20
-1.118563
0
VERTEX
8
2
10
0.212000
20
-1.128800
0
SEQEND
8
2
0
POLYLINE
8
2
66
1
70
1
40
0
41
0
0
VERTEX
8
2
10
0.212000
20
-1.382800
0
VERTEX
8
2
10
0.212000
20
-1.411200
0
VERTEX
8
2
10
0.210968
20
-1.421437
0
VERTEX
8
2
10
0.208007
20
-1.430972
0
VERTEX
8
2
10
0.203323
20
-1.439601
0
VERTEX
8
2
10
0.197119
20
-1.447119
0
VERTEX
8
2
10
0.189601
20
-1.453323
0
VERTEX
8
2
10
0.180972
20
-1.458007
0
VERTEX
8
2
10
0.171437
20
-1.460968
0
VERTEX
8
2
10
0.161200
20
-1.462000
0
VERTEX
8
2
10
0.092800
20
-1.462000
0
VERTEX
8
2
10
0.082563
20
-1.460968
0
VERTEX
8
2
10
0.073028
20
-1.458007
0
VERTEX
8
2
10
0.064399
20
-1.453323
0
VERTEX
8
2
10
0.056881
20
-1.447119
0
VERTEX
8
2
10
0.050677
20
-1.439601
0
VERTEX
8
2
10
0.045993
20
-1.430972
0
VERTEX
8
2
10
0.043032
20
-1.421437
0
VERTEX
8
2
10
0.042000
20
-1.411200
0
VERTEX
8
2
10
0.042000
20
-1.382800
0
VERTEX
8
2
10
0.043032
20
-1.372563
0
VERTEX
8
2
10
0.045993
20
-1.363028
0
VERTEX
8
2
10
0.050677
20
-1.354399
0
VERTEX
8
2
10
0.056881
20
-1.346881
0
VERTEX
8
2
10
0.064399
20
-1.340677
0
VERTEX
8
2
10
0.073028
20
-1.335993
0
VERTEX
8
2
10
0.082563
20
-1.333032
0
VERTEX
8
2
10
0.092800
20
-1.332000
0
VERTEX
8
2
10
0.161200
20
-1.332000
0
VERTEX
8
2
10
0.171437
20
-1.333032
0
VERTEX
8
2
10
0.180972
20
-1.335993
0
VERTEX
8
2
10
0.189601
20
-1.340677
0
VERTEX
8
2
10
0.197119
20
-1.346881
0
VERTEX
8
2
10
0.203323
20
-1.354399
0
VERTEX
8
2
10
0.208007
20
-1.363028
0
VERTEX
8
2
10
0.210968
20
-1.372563
0
VERTEX
8
2
10
0.212000
20
-1.382800
0
SEQEND
8
2
0
POLYLINE
8
2
66
1
70
1
40
0
41
0
0
VERTEX
8
2
10
0.212000
20
-1.636800
0
VERTEX
8
2
10
0.212000
20
-1.665200
0
VERTEX
8
2
10
0.210968
20
-1.675437
0
VERTEX
8
2
10
0.208007
20
-1.684972
0
VERTEX
8
2
10
0.203323
20
-1.693601
0
VERTEX
8
2
10
0.197119
20
-1.701119
0
VERTEX
8
2
10
0.189601
20
-1.707323
0
VERTEX
8
2
10
0.180972
20
-1.712007
0
VERTEX
8
2
10
0.171437
20
-1.714968
0
VERTEX
8
2
10
0.161200
20
-1.716000
0
VERTEX
8
2
10
0.092800
20
-1.716000
0
VERTEX
8
2
10
0.082563
20
-1.714968
0
VERTEX
8
2
10
0.073028
20
-1.712007
0
VERTEX
8
2
10
0.064399
20
-1.707323
0
VERTEX
8
2
10
0.056881
20
-1.701119
0
VERTEX
8
2
10
0.050677
20
-1.693601
0
VERTEX
8
2
10
0.045993
20
-1.684972
0
VERTEX
8
2
10
0.043032
20
-1.675437
0
VERTEX
8
2
10
0.042000
20
-1.665200
0
VERTEX
8
2
10
0.042000
20
-1.636800
0
VERTEX
8
2
10
0.043032
20
-1.626563
0
VERTEX
8
2
10
0.045993
20
-1.617028
0
VERTEX
8
2
10
0.050677
20
-1.608399
0
VERTEX
8
2
10
0.056881
20
-1.600881
0
VERTEX
8
2
10
0.064399
20
-1.594677
0
VERTEX
8
2
10
0.073028
20
-1.589993
0
VERTEX
8
2
10
0.082563
20
-1.587032
0
VERTEX
8
2
10
0.092800
20
-1.586000
0
VERTEX
8
2
10
0.161200
20
-1.586000
0
VERTEX
8
2
10
0.171437
20
-1.587032
0
VERTEX
8
2
10
0.180972
20
-1.589993
0
VERTEX
8
2
10
0.189601
20
-1.594677
0
VERTEX
8
2
10
0.197119
20
-1.600881
0
VERTEX
8
2
10
0.203323
20
-1.608399
0
VERTEX
8
2
10
0.208007
20
-1.617028
0
VERTEX
8
2
10
0.210968
20
-1.626563
0
VERTEX
8
2
10
0.212000
20
-1.636800
0
SEQEND
8
2
0
POLYLINE
8
2
66
1
70
1
40
0
41
0
0
VERTEX
8
2
10
0.212000
20
-1.890800
0
VERTEX
8
2
10
0.212000
20
-1.919200
0
VERTEX
8
2
10
0.210968
20
-1.929437
0
VERTEX
8
2
10
0.208007
20
-1.938972
0
VERTEX
8
2
10
0.203323
20
-1.947601
0
VERTEX
8
2
10
0.197119
20
-1.955119
0
VERTEX
8
2
10
0.189601
20
-1.961323
0
VERTEX
8
2
10
0.180972
20
-1.966007
0
VERTEX
8
2
10
0.171437
20
-1.968968
0
VERTEX
8
2
10
0.161200
20
-1.970000
0
VERTEX
8
2
10
0.092800
20
-1.970000
0
VERTEX
8
2
10
0.082563
20
-1.968968
0
VERTEX
8
2
10
0.073028
20
-1.966007
0
VERTEX
8
2
10
0.064399
20
-1.961323
0
VERTEX
8
2
10
0.056881
20
-1.955119
0
VERTEX
8
2
10
0.050677
20
-1.947601
0
VERTEX
8
2
10
0.045993
20
-1.938972
0
VERTEX
8
2
10
0.043032
20
-1.929437
0
VERTEX
8
2
10
0.042000
20
-1.919200
0
VERTEX
8
2
10
0.042000
20
-1.890800
0
VERTEX
8
2
10
0.043032
20
-1.880563
0
VERTEX
8
2
10
0.045993
20
-1.871028
0
VERTEX
8
2
10
0.050677
20
-1.862399
0
VERTEX
8
2
10
0.056881
20
-1.854881
0
VERTEX
8
2
10
0.064399
20
-1.848677
0
VERTEX
8
2
10
0.073028
20
-1.843993
0
VERTEX
8
2
10
0.082563
20
-1.841032
0
VERTEX
8
2
10
0.092800
20
-1.840000
0
VERTEX
8
2
10
0.161200
20
-1.840000
0
VERTEX
8
2
10
0.171437
20
-1.841032
0
VERTEX
8
2
10
0.180972
20
-1.843993
0
VERTEX
8
2
10
0.189601
20
-1.848677
0
VERTEX
8
2
10
0.197119
20
-1.854881
0
VERTEX
8
2
10
0.203323
20
-1.862399
0
VERTEX
8
2
10
0.208007
20
-1.871028
0
VERTEX
8
2
10
0.210968
20
-1.880563
0
VERTEX
8
2
10
0.212000
20
-1.890800
0
SEQEND
8
2
0
POLYLINE
8
2
66
1
70
1
40
0
41
0
0
VERTEX
8
2
10
0.212000
20
-2.144800
0
VERTEX
8
2
10
0.212000
20
-2.173200
0
VERTEX
8
2
10
0.210968
20
-2.183437
0
VERTEX
8
2
10
0.208007
20
-2.192972
0
VERTEX
8
2
10
0.203323
20
-2.201601
0
VERTEX
8
2
10
0.197119
20
-2.209119
0
VERTEX
8
2
10
0.189601
20
-2.215323
0
VERTEX
8
2
10
0.180972
20
-2.220007
0
VERTEX
8
2
10
0.171437
20
-2.222968
0
VERTEX
8
2
10
0.161200
20
-2.224000
0
VERTEX
8
2
10
0.092800
20
-2.224000
0
VERTEX
8
2
10
0.082563
20
-2.222968
0
VERTEX
8
2
10
0.073028
20
-2.220007
0
VERTEX
8
2
10
0.064399
20
-2.215323
0
VERTEX
8
2
10
0.056881
20
-2.209119
0
VERTEX
8
2
10
0.050677
20
-2.201601
0
VERTEX
8
2
10
0.045993
20
-2.192972
0
VERTEX
8
2
10
0.043032
20
-2.183437
0
VERTEX
8
2
10
0.042000
20
-2.173200
0
VERTEX
8
2
10
0.042000
20
-2.144800
0
VERTEX
8
2
10
0.043032
20
-2.134563
0
VERTEX
8
2
10
0.045993
20
-2.125028
0
VERTEX
8
2
10
0.050677
20
-2.116399
0
VERTEX
8
2
10
0.056881
20
-2.108881
0
VERTEX
8
2
10
0.064399
20
-2.102677
0
VERTEX
8
2
10
0.073028
20
-2.097993
0
VERTEX
8
2
10
0.082563
20
-2.095032
0
VERTEX
8
2
10
0.092800
20
-2.094000
0
VERTEX
8
2
10
0.161200
20
-2.094000
0
VERTEX
8
2
10
0.171437
20
-2.095032
0
VERTEX
8
2
10
0.180972
20
-2.097993
0
VERTEX
8
2
10
0.189601
20
-2.102677
0
VERTEX
8
2
10
0.197119
20
-2.108881
0
VERTEX
8
2
10
0.203323
20
-2.116399
0
VERTEX
8
2
10
0.208007
20
-2.125028
0
VERTEX
8
2
10
0.210968
20
-2.134563
0
VERTEX
8
2
10
0.212000
20
-2.144800
0
SEQEND
8
2
0
POLYLINE
8
2
66
1
70
1
40
0
41
0
0
VERTEX
8
2
10
0.212000
20
-2.398800
0
VERTEX
8
2
10
0.212000
20
-2.427200
0
VERTEX
8
2
10
0.210968
20
-2.437437
0
VERTEX
8
2
10
0.208007
20
-2.446972
0
VERTEX
8
2
10
0.203323
20
-2.455601
0
VERTEX
8
2
10
0.197119
20
-2.463119
0
VERTEX
8
2
10
0.189601
20
-2.469323
0
VERTEX
8
2
10
0.180972
20
-2.474007
0
VERTEX
8
2
10
0.171437
20
-2.476968
0
VERTEX
8
2
10
0.161200
20
-2.478000
0
VERTEX
8
2
10
0.092800
20
-2.478000
0
VERTEX
8
2
10
0.082563
20
-2.476968
0
VERTEX
8
2
10
0.073028
20
-2.474007
0
VERTEX
8
2
10
0.064399
20
-2.469323
0
VERTEX
8
2
10
0.056881
20
-2.463119
0
VERTEX
8
2
10
0.050677
20
-2.455601
0
VERTEX
8
2
10
0.045993
20
-2.446972
0
VERTEX
8
2
10
0.043032
20
-2.437437
0
VERTEX
8
2
10
0.042000
20
-2.427200
0
VERTEX
8
2
10
0.042000
20
-2.398800
0
VERTEX
8
2
10
0.043032
20
-2.388563
0
VERTEX
8
2
10
0.045993
20
-2.379028
0
VERTEX
8
2
10
0.050677
20
-2.370399
0
VERTEX
8
2
10
0.056881
20
-2.362881
0
VERTEX
8
2
10
0.064399
20
-2.356677
0
VERTEX
8
2
10
0.073028
20
-2.351993
0
VERTEX
8
2
10
0.082563
20
-2.349032
0
VERTEX
8
2
10
0.092800
20
-2.348000
0
VERTEX
8
2
10
0.161200
20
-2.348000
0
VERTEX
8
2
10
0.171437
20
-2.349032
0
VERTEX
8
2
10
0.180972
20
-2.351993
0
VERTEX
8
2
10
0.189601
20
-2.356677
0
VERTEX
8
2
10
0.197119
20
-2.362881
0
VERTEX
8
2
10
0.203323
20
-2.370399
0
VERTEX
8
2
10
0.208007
20
-2.379028
0
VERTEX
8
2
10
0.210968
20
-2.388563
0
VERTEX
8
2
10
0.212000
20
-2.398800
0
SEQEND
8
2
0
POLYLINE
8
2
66
1
70
1
40
0
41
0
0
VERTEX
8
2
10
0.212000
20
-2.652800
0
VERTEX
8
2
10
0.212000
20
-2.681200
0
VERTEX
8
2
10
0.210968
20
-2.691437
0
VERTEX
8
2
10
0.208007
20
-2.700972
0
VERTEX
8
2
10
0.203323
20
-2.709601
0
VERTEX
8
2
10
0.197119
20
-2.717119
0
VERTEX
8
2
10
0.189601
20
-2.723323
0
VERTEX
8
2
10
0.180972
20
-2.728007
0
VERTEX
8
2
10
0.171437
20
-2.730968
0
VERTEX
8
2
10
0.161200
20
-2.732000
0
VERTEX
8
2
10
0.092800
20
-2.732000
0
VERTEX
8
2
10
0.082563
20
-2.730968
0
VERTEX
8
2
10
0.073028
20
-2.728007
0
VERTEX
8
2
10
0.064399
20
-2.723323
0
VERTEX
8
2
10
0.056881
20
-2.717119
0
VERTEX
8
2
10
0.050677
20
-2.709601
0
VERTEX
8
2
10
0.045993
20
-2.700972
0
VERTEX
8
2
10
0.043032
20
-2.691437
0
VERTEX
8
2
10
0.042000
20
-2.681200
0
VERTEX
8
2
10
0.042000
20
-2.652800
0
VERTEX
8
2
10
0.043032
20
-2.642563
0
VERTEX
8
2
10
0.045993
20
-2.633028
0
VERTEX
8
2
10
0.050677
20
-2.624399
0
VERTEX
8
2
10
0.056881
20
-2.616881
0
VERTEX
8
2
10
0.064399
20
-2.610677
0
VERTEX
8
2
10
0.073028
20
-2.605993
0
VERTEX
8
2
10
0.082563
20
-2.603032
0
VERTEX
8
2
10
0.092800
20
-2.602000
0
VERTEX
8
2
10
0.161200
20
-2.602000
0
VERTEX
8
2
10
0.171437
20
-2.603032
0
VERTEX
8
2
10
0.180972
20
-2.605993
0
VERTEX
8
2
10
0.189601
20
-2.610677
0
VERTEX
8
2
10
0.197119
20
-2.616881
0
VERTEX
8
2
10
0.203323
20
-2.624399
0
VERTEX
8
2
10
0.208007
20
-2.633028
0
VERTEX
8
2
10
0.210968
20
-2.642563
0
VERTEX
8
2
10
0.212000
20
-2.652800
0
SEQEND
8
2
0
POLYLINE
8
2
66
1
70
1
40
0
41
0
0
VERTEX
8
2
10
0.212000
20
-2.906800
0
VERTEX
8
2
10
0.212000
20
-2.935200
0
VERTEX
8
2
10
0.210968
20
-2.945437
0
VERTEX
8
2
10
0.208007
20
-2.954972
0
VERTEX
8
2
10
0.203323
20
-2.963601
0
VERTEX
8
2
10
0.197119
20
-2.971119
0
VERTEX
8
2
10
0.189601
20
-2.977323
0
VERTEX
8
2
10
0.180972
20
-2.982007
0
VERTEX
8
2
10
0.171437
20
-2.984968
0
VERTEX
8
2
10
0.161200
20
-2.986000
0
VERTEX
8
2
10
0.092800
20
-2.986000
0
VERTEX
8
2
10
0.082563
20
-2.984968
0
VERTEX
8
2
10
0.073028
20
-2.982007
0
VERTEX
8
2
10
0.064399
20
-2.977323
0
VERTEX
8
2
10
0.056881
20
-2.971119
0
VERTEX
8
2
10
0.050677
20
-2.963601
0
VERTEX
8
2
10
0.045993
20
-2.954972
0
VERTEX
8
2
10
0.043032
20
-2.945437
0
VERTEX
8
2
10
0.042000
20
-2.935200
0
VERTEX
8
2
10
0.042000
20
-2.906800
0
VERTEX
8
2
10
0.043032
20
-2.896563
0
VERTEX
8
2
10
0.045993
20
-2.887028
0
VERTEX
8
2
10
0.050677
20
-2.878399
0
VERTEX
8
2
10
0.056881
20
-2.870881
0
VERTEX
8
2
10
0.064399
20
-2.864677
0
VERTEX
8
2
10
0.073028
20
-2.859993
0
VERTEX
8
2
10
0.082563
20
-2.857032
0
VERTEX
8
2
10
0.092800
20
-2.856000
0
VERTEX
8
2
10
0.161200
20
-2.856000
0
VERTEX
8
2
10
0.171437
20
-2.857032
0
VERTEX
8
2
10
0.180972
20
-2.859993
0
VERTEX
8
2
10
0.189601
20
-2.864677
0
VERTEX
8
2
10
0.197119
20
-2.870881
0
VERTEX
8
2
10
0.203323
20
-2.878399
0
VERTEX
8
2
10
0.208007
20
-2.887028
0
VERTEX
8
2
10
0.210968
20
-2.896563
0
VERTEX
8
2
10
0.212000
20
-2.906800
0
SEQEND
8
2
0
POLYLINE
8
2
66
1
70
1
40
0
41
0
0
VERTEX
8
2
10
0.212000
20
-3.160800
0
VERTEX
8
2
10
0.212000
20
-3.189200
0
VERTEX
8
2
10
0.210968
20
-3.199437
0
VERTEX
8
2
10
0.208007
20
-3.208972
0
VERTEX
8
2
10
0.203323
20
-3.217601
0
VERTEX
8
2
10
0.197119
20
-3.225119
0
VERTEX
8
2
10
0.189601
20
-3.231323
0
VERTEX
8
2
10
0.180972
20
-3.236007
0
VERTEX
8
2
10
0.171437
20
-3.238968
0
VERTEX
8
2
10
0.161200
20
-3.240000
0
VERTEX
8
2
10
0.092800
20
-3.240000
0
VERTEX
8
2
10
0.082563
20
-3.238968
0
VERTEX
8
2
10
0.073028
20
-3.236007
0
VERTEX
8
2
10
0.064399
20
-3.231323
0
VERTEX
8
2
10
0.056881
20
-3.225119
0
VERTEX
8
2
10
0.050677
20
-3.217601
0
VERTEX
8
2
10
0.045993
20
-3.208972
0
VERTEX
8
2
10
0.043032
20
-3.199437
0
VERTEX
8
2
10
0.042000
20
-3.189200
0
VERTEX
8
2
10
0.042000
20
-3.160800
0
VERTEX
8
2
10
0.043032
20
-3.150563
0
VERTEX
8
2
10
0.045993
20
-3.141028
0
VERTEX
8
2
10
0.050677
20
-3.132399
0
VERTEX
8
2
10
0.056881
20
-3.124881
0
VERTEX
8
2
10
0.064399
20
-3.118677
0
VERTEX
8
2
10
0.073028
20
-3.113993
0
VERTEX
8
2
10
0.082563
20
-3.111032
0
VERTEX
8
2
10
0.092800
20
-3.110000
0
VERTEX
8
2
10
0.161200
20
-3.110000
0
VERTEX
8
2
10
0.171437
20
-3.111032
0
VERTEX
8
2
10
0.180972
20
-3.113993
0
VERTEX
8
2
10
0.189601
20
-3.118677
0
VERTEX
8
2
10
0.197119
20
-3.124881
0
VERTEX
8
2
10
0.203323
20
-3.132399
0
VERTEX
8
2
10
0.208007
20
-3.141028
0
VERTEX
8
2
10
0.210968
20
-3.150563
0
VERTEX
8
2
10
0.212000
20
-3.160800
0
SEQEND
8
2
0
POLYLINE
8
2
66
1
70
1
40
0
41
0
0
VERTEX
8
2
10
0.212000
20
-3.414800
0
VERTEX
8
2
10
0.212000
20
-3.443200
0
VERTEX
8
2
10
0.210968
20
-3.453437
0
VERTEX
8
2
10
0.208007
20
-3.462972
0
VERTEX
8
2
10
0.203323
20
-3.471601
0
VERTEX
8
2
10
0.197119
20
-3.479119
0
VERTEX
8
2
10
0.189601
20
-3.485323
0
VERTEX
8
2
10
0.180972
20
-3.490007
0
VERTEX
8
2
10
0.171437
20
-3.492968
0
VERTEX
8
2
10
0.161200
20
-3.494000
0
VERTEX
8
2
10
0.092800
20
-3.494000
0
VERTEX
8
2
10
0.082563
20
-3.492968
0
VERTEX
8
2
10
0.073028
20
-3.490007
0
VERTEX
8
2
10
0.064399
20
-3.485323
0
VERTEX
8
2
10
0.056881
20
-3.479119
0
VERTEX
8
2
10
0.050677
20
-3.471601
0
VERTEX
8
2
10
0.045993
20
-3.462972
0
VERTEX
8
2
10
0.043032
20
-3.453437
0
VERTEX
8
2
10
0.042000
20
-3.443200
0
VERTEX
8
2
10
0.042000
20
-3.414800
0
VERTEX
8
2
10
0.043032
20
-3.404563
0
VERTEX
8
2
10
0.045993
20
-3.395028
0
VERTEX
8
2
10
0.050677
20
-3.386399
0
VERTEX
8
2
10
0.056881
20
-3.378881
0
VERTEX
8
2
10
0.064399
20
-3.372677
0
VERTEX
8
2
10
0.073028
20
-3.367993
0
VERTEX
8
2
10
0.082563
20
-3.365032
0
VERTEX
8
2
10
0.092800
20
-3.364000
0
VERTEX
8
2
10
0.161200
20
-3.364000
0
VERTEX
8
2
10
0.171437
20
-3.365032
0
VERTEX
8
2
10
0.180972
20
-3.367993
0
VERTEX
8
2
10
0.189601
20
-3.372677
0
VERTEX
8
2
10
0.197119
20
-3.378881
0
VERTEX
8
2
10
0.203323
20
-3.386399
0
VERTEX
8
2
10
0.208007
20
-3.395028
0
VERTEX
8
2
10
0.210968
20
-3.404563
0
VERTEX
8
2
10
0.212000
20
-3.414800
0
SEQEND
8
2
0
POLYLINE
8
2
66
1
70
1
40
0
41
0
0
VERTEX
8
2
10
0.212000
20
-3.668800
0
VERTEX
8
2
10
0.212000
20
-3.697200
0
VERTEX
8
2
10
0.210968
20
-3.707437
0
VERTEX
8
2
10
0.208007
20
-3.716972
0
VERTEX
8
2
10
0.203323
20
-3.725601
0
VERTEX
8
2
10
0.197119
20
-3.733119
0
VERTEX
8
2
10
0.189601
20
-3.739323
0
VERTEX
8
2
10
0.180972
20
-3.744007
0
VERTEX
8
2
10
0.171437
20
-3.746968
0
VERTEX
8
2
10
0.161200
20
-3.748000
0
VERTEX
8
2
10
0.092800
20
-3.748000
0
VERTEX
8
2
10
0.082563
20
-3.746968
0
VERTEX
8
2
10
0.073028
20
-3.744007
0
VERTEX
8
2
10
0.064399
20
-3.739323
0
VERTEX
8
2
10
0.056881
20
-3.733119
0
VERTEX
8
2
10
0.050677
20
-3.725601
0
VERTEX
8
2
10
0.045993
20
-3.716972
0
VERTEX
8
2
10
0.043032
20
-3.707437
0
VERTEX
8
2
10
0.042000
20
-3.697200
0
VERTEX
8
2
10
0.042000
20
-3.668800
0
VERTEX
8
2
10
0.043032
20
-3.658563
0
VERTEX
8
2
10
0.045993
20
-3.649028
0
VERTEX
8
2
10
0.050677
20
-3.640399
0
VERTEX
8
2
10
0.056881
20
-3.632881
0
VERTEX
8
2
10
0.064399
20
-3.626677
0
VERTEX
8
2
10
0.073028
20
-3.621993
0
VERTEX
8
2
10
0.082563
20
-3.619032
0
VERTEX
8
2
10
0.092800
20
-3.618000
0
VERTEX
8
2
10
0.161200
20
-3.618000
0
VERTEX
8
2
10
0.171437
20
-3.619032
0
VERTEX
8
2
10
0.180972
20
-3.621993
0
VERTEX
8
2
10
0.189601
20
-3.626677
0
VERTEX
8
2
10
0.197119
20
-3.632881
0
VERTEX
8
2
10
0.203323
20
-3.640399
0
VERTEX
8
2
10
0.208007
20
-3.649028
0
VERTEX
8
2
10
0.210968
20
-3.658563
0
VERTEX
8
2
10
0.212000
20
-3.668800
0
SEQEND
8
2
0
POLYLINE
8
2
66
1
70
1
40
0
41
0
0
VERTEX
8
2
10
0.212000
20
-3.922800
0
VERTEX
8
2
10
0.212000
20
-3.951200
0
VERTEX
8
2
10
0.210968
20
-3.961437
0
VERTEX
8
2
10
0.208007
20
-3.970972
0
VERTEX
8
2
10
0.203323
20
-3.979601
0
VERTEX
8
2
10
0.197119
20
-3.987119
0
VERTEX
8
2
10
0.189601
20
-3.993323
0
VERTEX
8
2
10
0.180972
20
-3.998007
0
VERTEX
8
2
10
0.171437
20
-4.000968
0
VERTEX
8
2
10
0.161200
20
-4.002000
0
VERTEX
8
2
10
0.092800
20
-4.002000
0
VERTEX
8
2
10
0.082563
20
-4.000968
0
VERTEX
8
2
10
0.073028
20
-3.998007
0
VERTEX
8
2
10
0.064399
20
-3.993323
0
VERTEX
8
2
10
0.056881
20
-3.987119
0
VERTEX
8
2
10
0.050677
20
-3.979601
0
VERTEX
8
2
10
0.045993
20
-3.970972
0
VERTEX
8
2
10
0.043032
20
-3.961437
0
VERTEX
8
2
10
0.042000
20
-3.951200
0
VERTEX
8
2
10
0.042000
20
-3.922800
0
VERTEX
8
2
10
0.043032
20
-3.912563
0
VERTEX
8
2
10
0.045993
20
-3.903028
0
VERTEX
8
2
10
0.050677
20
-3.894399
0
VERTEX
8
2
10
0.056881
20
-3.886881
0
VERTEX
8
2
10
0.064399
20
-3.880677
0
VERTEX
8
2
10
0.073028
20
-3.875993
0
VERTEX
8
2
10
0.082563
20
-3.873032
0
VERTEX
8
2
10
0.092800
20
-3.872000
0
VERTEX
8
2
10
0.161200
20
-3.872000
0
VERTEX
8
2
10
0.171437
20
-3.873032
0
VERTEX
8
2
10
0.180972
20
-3.875993
0
VERTEX
8
2
10
0.189601
20
-3.880677
0
VERTEX
8
2
10
0.197119
20
-3.886881
0
VERTEX
8
2
10
0.203323
20
-3.894399
0
VERTEX
8
2
10
0.208007
20
-3.903028
0
VERTEX
8
2
10
0.210968
20
-3.912563
0
VERTEX
8
2
10
0.212000
20
-3.922800
0
SEQEND
8
2
0
POLYLINE
8
2
66
1
70
1
40
0
41
0
0
VERTEX
8
2
10
0.212000
20
-4.176800
0
VERTEX
8
2
10
0.212000
20
-4.205200
0
VERTEX
8
2
10
0.210968
20
-4.215437
0
VERTEX
8
2
10
0.208007
20
-4.224972
0
VERTEX
8
2
10
0.203323
20
-4.233601
0
VERTEX
8
2
10
0.197119
20
-4.241119
0
VERTEX
8
2
10
0.189601
20
-4.247323
0
VERTEX
8
2
10
0.180972
20
-4.252007
0
VERTEX
8
2
10
0.171437
20
-4.254968
0
VERTEX
8
2
10
0.161200
20
-4.256000
0
VERTEX
8
2
10
0.092800
20
-4.256000
0
VERTEX
8
2
10
0.082563
20
-4.254968
0
VERTEX
8
2
10
0.073028
20
-4.252007
0
VERTEX
8
2
10
0.064399
20
-4.247323
0
VERTEX
8
2
10
0.056881
20
-4.241119
0
VERTEX
8
2
10
0.050677
20
-4.233601
0
VERTEX
8
2
10
0.045993
20
-4.224972
0
VERTEX
8
2
10
0.043032
20
-4.215437
0
VERTEX
8
2
10
0.042000
20
-4.205200
0
VERTEX
8
2
10
0.042000
20
-4.176800
0
VERTEX
8
2
10
0.043032
20
-4.166563
0
VERTEX
8
2
10
0.045993
20
-4.157028
0
VERTEX
8
2
10
0.050677
20
-4.148399
0
VERTEX
8
2
10
0.056881
20
-4.140881
0
VERTEX
8
2
10
0.064399
20
-4.134677
0
VERTEX
8
2
10
0.073028
20
-4.129993
0
VERTEX
8
2
10
0.082563
20
-4.127032
0
VERTEX
8
2
10
0.092800
20
-4.126000
0
VERTEX
8
2
10
0.161200
20
-4.126000
0
VERTEX
8
2
10
0.171437
20
-4.127032
0
VERTEX
8
2
10
0.180972
20
-4.129993
0
VERTEX
8
2
10
0.189601
20
-4.134677
0
VERTEX
8
2
10
0.197119
20
-4.140881
0
VERTEX
8
2
10
0.203323
20
-4.148399
0
VERTEX
8
2
10
0.208007
20
-4.157028
0
VERTEX
8
2
10
0.210968
20
-4.166563
0
VERTEX
8
2
10
0.212000
20
-4.176800
0
SEQEND
8
2
0
POLYLINE
8
2
66
1
70
1
40
0
41
0
0
VERTEX
8
2
10
0.212000
20
-4.430800
0
VERTEX
8
2
10
0.212000
20
-4.459200
0
VERTEX
8
2
10
0.210968
20
-4.469437
0
VERTEX
8
2
10
0.208007
20
-4.478972
0
VERTEX
8
2
10
0.203323
20
-4.487601
0
VERTEX
8
2
10
0.197119
20
-4.495119
0
VERTEX
8
2
10
0.189601
20
-4.501323
0
VERTEX
8
2
10
0.180972
20
-4.506007
0
VERTEX
8
2
10
0.171437
20
-4.508968
0
VERTEX
8
2
10
0.161200
20
-4.510000
0
VERTEX
8
2
10
0.092800
20
-4.510000
0
VERTEX
8
2
10
0.082563
20
-4.508968
0
VERTEX
8
2
10
0.073028
20
-4.506007
0
VERTEX
8
2
10
0.064399
20
-4.501323
0
VERTEX
8
2
10
0.056881
20
-4.495119
0
VERTEX
8
2
10
0.050677
20
-4.487601
0
VERTEX
8
2
10
0.045993
20
-4.478972
0
VERTEX
8
2
10
0.043032
20
-4.469437
0
VERTEX
8
2
10
0.042000
20
-4.459200
0
VERTEX
8
2
10
0.042000
20
-4.430800
0
VERTEX
8
2
10
0.043032
20
-4.420563
0
VERTEX
8
2
10
0.045993
20
-4.411028
0
VERTEX
8
2
10
0.050677
20
-4.402399
0
VERTEX
8
2
10
0.056881
20
-4.394881
0
VERTEX
8
2
10
0.064399
20
-4.388677
0
VERTEX
8
2
10
0.073028
20
-4.383993
0
VERTEX
8
2
10
0.082563
20
-4.381032
0
VERTEX
8
2
10
0.092800
20
-4.380000
0
VERTEX
8
2
10
0.161200
20
-4.380000
0
VERTEX
8
2
10
0.171437
20
-4.381032
0
VERTEX
8
2
10
0.180972
20
-4.383993
0
VERTEX
8
2
10
0.189601
20
-4.388677
0
VERTEX
8
2
10
0.197119
20
-4.394881
0
VERTEX
8
2
10
0.203323
20
-4.402399
0
VERTEX
8
2
10
0.208007
20
-4.411028
0
VERTEX
8
2
10
0.210968
20
-4.420563
0
VERTEX
8
2
10
0.212000
20
-4.430800
0
SEQEND
8
2
0
POLYLINE
8
2
66
1
70
1
40
0
41
0
0
VERTEX
8
2
10
0.212000
20
-4.684800
0
VERTEX
8
2
10
0.212000
20
-4.713200
0
VERTEX
8
2
10
0.210968
20
-4.723437
0
VERTEX
8
2
10
0.208007
20
-4.732972
0
VERTEX
8
2
10
0.203323
20
-4.741601
0
VERTEX
8
2
10
0.197119
20
-4.749119
0
VERTEX
8
2
10
0.189601
20
-4.755323
0
VERTEX
8
2
10
0.180972
20
-4.760007
0
VERTEX
8
2
10
0.171437
20
-4.762968
0
VERTEX
8
2
10
0.161200
20
-4.764000
0
VERTEX
8
2
10
0.092800
20
-4.764000
0
VERTEX
8
2
10
0.082563
20
-4.762968
0
VERTEX
8
2
10
0.073028
20
-4.760007
0
VERTEX
8
2
10
0.064399
20
-4.755323
0
VERTEX
8
2
10
0.056881
20
-4.749119
0
VERTEX
8
2
10
0.050677
20
-4.741601
0
VERTEX
8
2
10
0.045993
20
-4.732972
0
VERTEX
8
2
10
0.043032
20
-4.723437
0
VERTEX
8
2
10
0.042000
20
-4.713200
0
VERTEX
8
2
10
0.042000
20
-4.684800
0
VERTEX
8
2
10
0.043032
20
-4.674563
0
VERTEX
8
2
10
0.045993
20
-4.665028
0
VERTEX
8
2
10
0.050677
20
-4.656399
0
VERTEX
8
2
10
0.056881
20
-4.648881
0
VERTEX
8
2
10
0.064399
20
-4.642677
0
VERTEX
8
2
10
0.073028
20
-4.637993
0
VERTEX
8
2
10
0.082563
20
-4.635032
0
VERTEX
8
2
10
0.092800
20
-4.634000
0
VERTEX
8
2
10
0.161200
20
-4.634000
0
VERTEX
8
2
10
0.171437
20
-4.635032
0
VERTEX
8
2
10
0.180972
20
-4.637993
0
VERTEX
8
2
10
0.189601
20
-4.642677
0
VERTEX
8
2
10
0.197119
20
-4.648881
0
VERTEX
8
2
10
0.203323
20
-4.656399
0
VERTEX
8
2
10
0.208007
20
-4.665028
0
VERTEX
8
2
10
0.210968
20
-4.674563
0
VERTEX
8
2
10
0.212000
20
-4.684800
0
SEQEND
8
2
0
POLYLINE
8
2
66
1
70
1
40
0
41
0
0
VERTEX
8
2
10
0.212000
20
-4.938800
0
VERTEX
8
2
10
0.212000
20
-4.967200
0
VERTEX
8
2
10
0.210968
20
-4.977437
0
VERTEX
8
2
10
0.208007
20
-4.986972
0
VERTEX
8
2
10
0.203323
20
-4.995601
0
VERTEX
8
2
10
0.197119
20
-5.003119
0
VERTEX
8
2
10
0.189601
20
-5.009323
0
VERTEX
8
2
10
0.180972
20
-5.014007
0
VERTEX
8
2
10
0.171437
20
-5.016968
0
VERTEX
8
2
10
0.161200
20
-5.018000
0
VERTEX
8
2
10
0.092800
20
-5.018000
0
VERTEX
8
2
10
0.082563
20
-5.016968
0
VERTEX
8
2
10
0.073028
20
-5.014007
0
VERTEX
8
2
10
0.064399
20
-5.009323
0
VERTEX
8
2
10
0.056881
20
-5.003119
0
VERTEX
8
2
10
0.050677
20
-4.995601
0
VERTEX
8
2
10
0.045993
20
-4.986972
0
VERTEX
8
2
10
0.043032
20
-4.977437
0
VERTEX
8
2
10
0.042000
20
-4.967200
0
VERTEX
8
2
10
0.042000
20
-4.938800
0
VERTEX
8
2
10
0.043032
20
-4.928563
0
VERTEX
8
2
10
0.045993
20
-4.919028
0
VERTEX
8
2
10
0.050677
20
-4.910399
0
VERTEX
8
2
10
0.056881
20
-4.902881
0
VERTEX
8
2
10
0.064399
20
-4.896677
0
VERTEX
8
2
10
0.073028
20
-4.891993
0
VERTEX
8
2
10
0.082563
20
-4.889032
0
VERTEX
8
2
10
0.092800
20
-4.888000
0
VERTEX
8
2
10
0.161200
20
-4.888000
0
VERTEX
8
2
10
0.171437
20
-4.889032
0
VERTEX
8
2
10
0.180972
20
-4.891993
0
VERTEX
8
2
10
0.189601
20
-4.896677
0
VERTEX
8
2
10
0.197119
20
-4.902881
0
VERTEX
8
2
10
0.203323
20
-4.910399
0
VERTEX
8
2
10
0.208007
20
-4.919028
0
VERTEX
8
2
10
0.210968
20
-4.928563
0
VERTEX
8
2
10
0.212000
20
-4.938800
0
SEQEND
8
2
0
POLYLINE
8
2
66
1
70
1
40
0
41
0
0
VERTEX
8
2
10
0.212000
20
-5.192800
0
VERTEX
8
2
10
0.212000
20
-5.221200
0
VERTEX
8
2
10
0.210968
20
-5.231437
0
VERTEX
8
2
10
0.208007
20
-5.240972
0
VERTEX
8
2
10
0.203323
20
-5.249601
0
VERTEX
8
2
10
0.197119
20
-5.257119
0
VERTEX
8
2
10
0.189601
20
-5.263323
0
VERTEX
8
2
10
0.180972
20
-5.268007
0
VERTEX
8
2
10
0.171437
20
-5.270968
0
VERTEX
8
2
10
0.161200
20
-5.272000
0
VERTEX
8
2
10
0.092800
20
-5.272000
0
VERTEX
8
2
10
0.082563
20
-5.270968
0
VERTEX
8
2
10
0.073028
20
-5.268007
0
VERTEX
8
2
10
0.064399
20
-5.263323
0
VERTEX
8
2
10
0.056881
20
-5.257119
0
VERTEX
8
2
10
0.050677
20
-5.249601
0
VERTEX
8
2
10
0.045993
20
-5.240972
0
VERTEX
8
2
10
0.043032
20
-5.231437
0
VERTEX
8
2
10
0.042000
20
-5.221200
0
VERTEX
8
2
10
0.042000
20
-5.192800
0
VERTEX
8
2
10
0.043032
20
-5.182563
0
VERTEX
8
2
10
0.045993
20
-5.173028
0
VERTEX
8
2
10
0.050677
20
-5.164399
0
VERTEX
8
2
10
0.056881
20
-5.156881
0
VERTEX
8
2
10
0.064399
20
-5.150677
0
VERTEX
8
2
10
0.073028
20
-5.145993
0
VERTEX
8
2
10
0.082563
20
-5.143032
0
VERTEX
8
2
10
0.092800
20
-5.142000
0
VERTEX
8
2
10
0.161200
20
-5.142000
0
VERTEX
8
2
10
0.171437
20
-5.143032
0
VERTEX
8
2
10
0.180972
20
-5.145993
0
VERTEX
8
2
10
0.189601
20
-5.150677
0
VERTEX
8
2
10
0.197119
20
-5.156881
0
VERTEX
8
2
10
0.203323
20
-5.164399
0
VERTEX
8
2
10
0.208007
20
-5.173028
0
VERTEX
8
2
10
0.210968
20
-5.182563
0
VERTEX
8
2
10
0.212000
20
-5.192800
0
SEQEND
8
2
0
POLYLINE
8
2
66
1
70
1
40
0
41
0
0
VERTEX
8
2
10
0.212000
20
-5.446800
0
VERTEX
8
2
10
0.212000
20
-5.475200
0
VERTEX
8
2
10
0.210968
20
-5.485437
0
VERTEX
8
2
10
0.208007
20
-5.494972
0
VERTEX
8
2
10
0.203323
20
-5.503601
0
VERTEX
8
2
10
0.197119
20
-5.511119
0
VERTEX
8
2
10
0.189601
20
-5.517323
0
VERTEX
8
2
10
0.180972
20
-5.522007
0
VERTEX
8
2
10
0.171437
20
-5.524968
0
VERTEX
8
2
10
0.161200
20
-5.526000
0
VERTEX
8
2
10
0.092800
20
-5.526000
0
VERTEX
8
2
10
0.082563
20
-5.524968
0
VERTEX
8
2
10
0.073028
20
-5.522007
0
VERTEX
8
2
10
0.064399
20
-5.517323
0
VERTEX
8
2
10
0.056881
20
-5.511119
0
VERTEX
8
2
10
0.050677
20
-5.503601
0
VERTEX
8
2
10
0.045993
20
-5.494972
0
VERTEX
8
2
10
0.043032
20
-5.485437
0
VERTEX
8
2
10
0.042000
20
-5.475200
0
VERTEX
8
2
10
0.042000
20
-5.446800
0
VERTEX
8
2
10
0.043032
20
-5.436563
0
VERTEX
8
2
10
0.045993
20
-5.427028
0
VERTEX
8
2
10
0.050677
20
-5.418399
0
VERTEX
8
2
10
0.056881
20
-5.410881
0
VERTEX
8
2
10
0.064399
20
-5.404677
0
VERTEX
8
2
10
0.073028
20
-5.399993
0
VERTEX
8
2
10
0.082563
20
-5.397032
0
VERTEX
8
2
10
0.092800
20
-5.396000
0
VERTEX
8
2
10
0.161200
20
-5.396000
0
VERTEX
8
2
10
0.171437
20
-5.397032
0
VERTEX
8
2
10
0.180972
20
-5.399993
0
VERTEX
8
2
10
0.189601
20
-5.404677
0
VERTEX
8
2
10
0.197119
20
-5.410881
0
VERTEX
8
2
10
0.203323
20
-5.418399
0
VERTEX
8
2
10
0.208007
20
-5.427028
0
VERTEX
8
2
10
0.210968
20
-5.436563
0
VERTEX
8
2
10
0.212000
20
-5.446800
0
SEQEND
8
2
0
POLYLINE
8
2
66
1
70
1
40
0
41
0
0
VERTEX
8
2
10
2.498000
20
-0.112800
0
VERTEX
8
2
10
2.498000
20
-0.141200
0
VERTEX
8
2
10
2.496968
20
-0.151437
0
VERTEX
8
2
10
2.494007
20
-0.160972
0
VERTEX
8
2
10
2.489323
20
-0.169601
0
VERTEX
8
2
10
2.483119
20
-0.177119
0
VERTEX
8
2
10
2.475601
20
-0.183323
0
VERTEX
8
2
10
2.466972
20
-0.188007
0
VERTEX
8
2
10
2.457437
20
-0.190968
0
VERTEX
8
2
10
2.447200
20
-0.192000
0
VERTEX
8
2
10
2.378800
20
-0.192000
0
VERTEX
8
2
10
2.368563
20
-0.190968
0
VERTEX
8
2
10
2.359028
20
-0.188007
0
VERTEX
8
2
10
2.350399
20
-0.183323
0
VERTEX
8
2
10
2.342881
20
-0.177119
0
VERTEX
8
2
10
2.336677
20
-0.169601
0
VERTEX
8
2
10
2.331993
20
-0.160972
0
VERTEX
8
2
10
2.329032
20
-0.151437
0
VERTEX
8
2
10
2.328000
20
-0.141200
0
VERTEX
8
2
10
2.328000
20
-0.112800
0
VERTEX
8
2
10
2.329032
20
-0.102563
0
VERTEX
8
2
10
2.331993
20
-0.093028
0
VERTEX
8
2
10
2.336677
20
-0.084399
0
VERTEX
8
2
10
2.342881
20
-0.076881
0
VERTEX
8
2
10
2.350399
20
-0.070677
0
VERTEX
8
2
10
2.359028
20
-0.065993
0
VERTEX
8
2
10
2.368563
20
-0.063032
0
VERTEX
8
2
10
2.378800
20
-0.062000
0
VERTEX
8
2
10
2.447200
20
-0.062000
0
VERTEX
8
2
10
2.457437
20
-0.063032
0
VERTEX
8
2
10
2.466972
20
-0.065993
0
VERTEX
8
2
10
2.475601
20
-0.070677
0
VERTEX
8
2
10
2.483119
20
-0.076881
0
VERTEX
8
2
10
2.489323
20
-0.084399
0
VERTEX
8
2
10
2.494007
20
-0.093028
0
VERTEX
8
2
10
2.496968
20
-0.102563
0
VERTEX
8
2
10
2.498000
20
-0.112800
0
SEQEND
8
2
0
POLYLINE
8
2
66
1
70
1
40
0
41
0
0
VERTEX
8
2
10
2.498000
20
-0.366800
0
VERTEX
8
2
10
2.498000
20
-0.395200
0
VERTEX
8
2
10
2.496968
20
-0.405437
0
VERTEX
8
2
10
2.494007
20
-0.414972
0
VERTEX
8
2
10
2.489323
20
-0.423601
0
VERTEX
8
2
10
2.483119
20
-0.431119
0
VERTEX
8
2
10
2.475601
20
-0.437323
0
VERTEX
8
2
10
2.466972
20
-0.442007
0
VERTEX
8
2
10
2.457437
20
-0.444968
0
VERTEX
8
2
10
2.447200
20
-0.446000
0
VERTEX
8
2
10
2.378800
20
-0.446000
0
VERTEX
8
2
10
2.368563
20
-0.444968
0
VERTEX
8
2
10
2.359028
20
-0.442007
0
VERTEX
8
2
10
2.350399
20
-0.437323
0
VERTEX
8
2
10
2.342881
20
-0.431119
0
VERTEX
8
2
10
2.336677
20
-0.423601
0
VERTEX
8
2
10
2.331993
20
-0.414972
0
VERTEX
8
2
10
2.329032
20
-0.405437
0
VERTEX
8
2
10
2.328000
20
-0.395200
0
VERTEX
8
2
10
2.328000
20
-0.366800
0
VERTEX
8
2
10
2.329032
20
-0.356563
0
VERTEX
8
2
10
2.331993
20
-0.347028
0
VERTEX
8
2
10
2.336677
20
-0.338399
0
VERTEX
8
2
10
2.342881
20
-0.330881
0
VERTEX
8
2
10
2.350399
20
-0.324677
0
VERTEX
8
2
10
2.359028
20
-0.319993
0
VERTEX
8
2
10
2.368563
20
-0.317032
0
VERTEX
8
2
10
2.378800
20
-0.316000
0
VERTEX
8
2
10
2.447200
20
-0.316000
0
VERTEX
8
2
10
2.457437
20
-0.317032
0
VERTEX
8
2
10
2.466972
20
-0.319993
0
VERTEX
8
2
10
2.475601
20
-0.324677
0
VERTEX
8
2
10
2.483119
20
-0.330881
0
VERTEX
8
2
10
2.489323
20
-0.338399
0
VERTEX
8
2
10
2.494007
20
-0.347028
0
VERTEX
8
2
10
2.496968
20
-0.356563
0
VERTEX
8
2
10
2.498000
20
-0.366800
0
SEQEND
8
2
0
POLYLINE
8
2
66
1
70
1
40
0
41
0
0
VERTEX
8
2
10
2.498000
20
-0.620800
0
VERTEX
8
2
10
2.498000
20
-0.649200
0
VERTEX
8
2
10
2.496968
20
-0.659437
0
VERTEX
8
2
10
2.494007
20
-0.668972
0
VERTEX
8
2
10
2.489323
20
-0.677601
0
VERTEX
8
2
10
2.483119
20
-0.685119
0
VERTEX
8
2
10
2.475601
20
-0.691323
0
VERTEX
8
2
10
2.466972
20
-0.696007
0
VERTEX
8
2
10
2.457437
20
-0.698968
0
VERTEX
8
2
10
2.447200
20
-0.700000
0
VERTEX
8
2
10
2.378800
20
-0.700000
0
VERTEX
8
2
10
2.368563
20
-0.698968
0
VERTEX
8
2
10
2.359028
20
-0.696007
0
VERTEX
8
2
10
2.350399
20
-0.691323
0
VERTEX
8
2
10
2.342881
20
-0.685119
0
VERTEX
8
2
10
2.336677
20
-0.677601
0
VERTEX
8
2
10
2.331993
20
-0.668972
0
VERTEX
8
2
10
2.329032
20
-0.659437
0
VERTEX
8
2
10
2.328000
20
-0.649200
0
VERTEX
8
2
10
2.328000
20
-0.620800
0
VERTEX
8
2
10
2.329032
20
-0.610563
0
VERTEX
8
2
10
2.331993
20
-0.601028
0
VERTEX
8
2
10
2.336677
20
-0.592399
0
VERTEX
8
2
10
2.342881
20
-0.584881
0
VERTEX
8
2
10
2.350399
20
-0.578677
0
VERTEX
8
2
10
2.359028
20
-0.573993
0
VERTEX
8
2
10
2.368563
20
-0.571032
0
VERTEX
8
2
10
2.378800
20
-0.570000
0
VERTEX
8
2
10
2.447200
20
-0.570000
0
VERTEX
8
2
10
2.457437
20
-0.571032
0
VERTEX
8
2
10
2.466972
20
-0.573993
0
VERTEX
8
2
10
2.475601
20
-0.578677
0
VERTEX
8
2
10
2.483119
20
-0.584881
0
VERTEX
8
2
10
2.489323
20
-0.592399
0
VERTEX
8
2
10
2.494007
20
-0.601028
0
VERTEX
8
2
10
2.496968
20
-0.610563
0
VERTEX
8
2
10
2.498000
20
-0.620800
0
SEQEND
8
2
0
POLYLINE
8
2
66
1
70
1
40
0
41
0
0
VERTEX
8
2
10
2.498000
20
-0.874800
0
VERTEX
8
2
10
2.498000
20
-0.903200
0
VERTEX
8
2
10
2.496968
20
-0.913437
0
VERTEX
8
2
10
2.494007
20
-0.922972
0
VERTEX
8
2
10
2.489323
20
-0.931601
0
VERTEX
8
2
10
2.483119
20
-0.939119
0
VERTEX
8
2
10
2.475601
20
-0.945323
0
VERTEX
8
2
10
2.466972
20
-0.950007
0
VERTEX
8
2
10
2.457437
20
-0.952968
0
VERTEX
8
2
10
2.447200
20
-0.954000
0
VERTEX
8
2
10
2.378800
20
-0.954000
0
VERTEX
8
2
10
2.368563
20
-0.952968
0
VERTEX
8
2
10
2.359028
20
-0.950007
0
VERTEX
8
2
10
2.350399
20
-0.945323
0
VERTEX
8
2
10
2.342881
20
-0.939119
0
VERTEX
8
2
10
2.336677
20
-0.931601
0
VERTEX
8
2
10
2.331993
20
-0.922972
0
VERTEX
8
2
10
2.329032
20
-0.913437
0
VERTEX
8
2
10
2.328000
20
-0.903200
0
VERTEX
8
2
10
2.328000
20
-0.874800
0
VERTEX
8
2
10
2.329032
20
-0.864563
0
VERTEX
8
2
10
2.331993
20
-0.855028
0
VERTEX
8
2
10
2.336677
20
-0.846399
0
VERTEX
8
2
10
2.342881
20
-0.838881
0
VERTEX
8
2
10
2.350399
20
-0.832677
0
VERTEX
8
2
10
2.359028
20
-0.827993
0
VERTEX
8
2
10
2.368563
20
-0.825032
0
VERTEX
8
2
10
2.378800
20
-0.824000
0
VERTEX
8
2
10
2.447200
20
-0.824000
0
VERTEX
8
2
10
2.457437
20
-0.825032
0
VERTEX
8
2
10
2.466972
20
-0.827993
0
VERTEX
8
2
10
2.475601
20
-0.832677
0
VERTEX
8
2
10
2.483119
20
-0.838881
0
VERTEX
8
2
10
2.489323
20
-0.846399
0
VERTEX
8
2
10
2.494007
20
-0.855028
0
VERTEX
8
2
10
2.496968
20
-0.864563
0
VERTEX
8
2
10
2.498000
20
-0.874800
0
SEQEND
8
2
0
POLYLINE
8
2
66
1
70
1
40
0
41
0
0
VERTEX
8
2
10
2.498000
20
-1.128800
0
VERTEX
8
2
10
2.498000
20
-1.157200
0
VERTEX
8
2
10
2.496968
20
-1.167437
0
VERTEX
8
2
10
2.494007
20
-1.176972
0
VERTEX
8
2
10
2.489323
20
-1.185601
0
VERTEX
8
2
10
2.483119
20
-1.193119
0
VERTEX
8
2
10
2.475601
20
-1.199323
0
VERTEX
8
2
10
2.466972
20
-1.204007
0
VERTEX
8
2
10
2.457437
20
-1.206968
0
VERTEX
8
2
10
2.447200
20
-1.208000
0
VERTEX
8
2
10
2.378800
20
-1.208000
0
VERTEX
8
2
10
2.368563
20
-1.206968
0
VERTEX
8
2
10
2.359028
20
-1.204007
0
VERTEX
8
2
10
2.350399
20
-1.199323
0
VERTEX
8
2
10
2.342881
20
-1.193119
0
VERTEX
8
2
10
2.336677
20
-1.185601
0
VERTEX
8
2
10
2.331993
20
-1.176972
0
VERTEX
8
2
10
2.329032
20
-1.167437
0
VERTEX
8
2
10
2.328000
20
-1.157200
0
VERTEX
8
2
10
2.328000
20
-1.128800
0
VERTEX
8
2
10
2.329032
20
-1.118563
0
VERTEX
8
2
10
2.331993
20
-1.109028
0
VERTEX
8
2
10
2.336677
20
-1.100399
0
VERTEX
8
2
10
2.342881
20
-1.092881
0
VERTEX
8
2
10
2.350399
20
-1.086677
0
VERTEX
8
2
10
2.359028
20
-1.081993
0
VERTEX
8
2
10
2.368563
20
-1.079032
0
VERTEX
8
2
10
2.378800
20
-1.078000
0
VERTEX
8
2
10
2.447200
20
-1.078000
0
VERTEX
8
2
10
2.457437
20
-1.079032
0
VERTEX
8
2
10
2.466972
20
-1.081993
0
VERTEX
8
2
10
2.475601
20
-1.086677
0
VERTEX
8
2
10
2.483119
20
-1.092881
0
VERTEX
8
2
10
2.489323
20
-1.100399
0
VERTEX
8
2
10
2.494007
20
-1.109028
0
VERTEX
8
2
10
2.496968
20
-1.118563
0
VERTEX
8
2
10
2.498000
20
-1.128800
0
SEQEND
8
2
0
POLYLINE
8
2
66
1
70
1
40
0
41
0
0
VERTEX
8
2
10
2.498000
20
-1.382800
0
VERTEX
8
2
10
2.498000
20
-1.411200
0
VERTEX
8
2
10
2.496968
20
-1.421437
0
VERTEX
8
2
10
2.494007
20
-1.430972
0
VERTEX
8
2
10
2.489323
20
-1.439601
0
VERTEX
8
2
10
2.483119
20
-1.447119
0
VERTEX
8
2
10
2.475601
20
-1.453323
0
VERTEX
8
2
10
2.466972
20
-1.458007
0
VERTEX
8
2
10
2.457437
20
-1.460968
0
VERTEX
8
2
10
2.447200
20
-1.462000
0
VERTEX
8
2
10
2.378800
20
-1.462000
0
VERTEX
8
2
10
2.368563
20
-1.460968
0
VERTEX
8
2
10
2.359028
20
-1.458007
0
VERTEX
8
2
10
2.350399
20
-1.453323
0
VERTEX
8
2
10
2.342881
20
-1.447119
0
VERTEX
8
2
10
2.336677
20
-1.439601
0
VERTEX
8
2
10
2.331993
20
-1.430972
0
VERTEX
8
2
10
2.329032
20
-1.421437
0
VERTEX
8
2
10
2.328000
20
-1.411200
0
VERTEX
8
2
10
2.328000
20
-1.382800
0
VERTEX
8
2
10
2.329032
20
-1.372563
0
VERTEX
8
2
10
2.331993
20
-1.363028
0
VERTEX
8
2
10
2.336677
20
-1.354399
0
VERTEX
8
2
10
2.342881
20
-1.346881
0
VERTEX
8
2
10
2.350399
20
-1.340677
0
VERTEX
8
2
10
2.359028
20
-1.335993
0
VERTEX
8
2
10
2.368563
20
-1.333032
0
VERTEX
8
2
10
2.378800
20
-1.332000
0
VERTEX
8
2
10
2.447200
20
-1.332000
0
VERTEX
8
2
10
2.457437
20
-1.333032
0
VERTEX
8
2
10
2.466972
20
-1.335993
0
VERTEX
8
2
10
2.475601
20
-1.340677
0
VERTEX
8
2
10
2.483119
20
-1.346881
0
VERTEX
8
2
10
2.489323
20
-1.354399
0
VERTEX
8
2
10
2.494007
20
-1.363028
0
VERTEX
8
2
10
2.496968
20
-1.372563
0
VERTEX
8
2
10
2.498000
20
-1.382800
0
SEQEND
8
2
0
POLYLINE
8
2
66
1
70
1
40
0
41
0
0
VERTEX
8
2
10
2.498000
20
-1.636800
0
VERTEX
8
2
10
2.498000
20
-1.665200
0
VERTEX
8
2
10
2.496968
20
-1.675437
0
VERTEX
8
2
10
2.494007
20
-1.684972
0
VERTEX
8
2
10
2.489323
20
-1.693601
0
VERTEX
8
2
10
2.483119
20
-1.701119
0
VERTEX
8
2
10
2.475601
20
-1.707323
0
VERTEX
8
2
10
2.466972
20
-1.712007
0
VERTEX
8
2
10
2.457437
20
-1.714968
0
VERTEX
8
2
10
2.447200
20
-1.716000
0
VERTEX
8
2
10
2.378800
20
-1.716000
0
VERTEX
8
2
10
2.368563
20
-1.714968
0
VERTEX
8
2
10
2.359028
20
-1.712007
0
VERTEX
8
2
10
2.350399
20
-1.707323
0
VERTEX
8
2
10
2.342881
20
-1.701119
0
VERTEX
8
2
10
2.336677
20
-1.693601
0
VERTEX
8
2
10
2.331993
20
-1.684972
0
VERTEX
8
2
10
2.329032
20
-1.675437
0
VERTEX
8
2
10
2.328000
20
-1.665200
0
VERTEX
8
2
10
2.328000
20
-1.636800
0
VERTEX
8
2
10
2.329032
20
-1.626563
0
VERTEX
8
2
10
2.331993
20
-1.617028
0
VERTEX
8
2
10
2.336677
20
-1.608399
0
VERTEX
8
2
10
2.342881
20
-1.600881
0
VERTEX
8
2
10
2.350399
20
-1.594677
0
VERTEX
8
2
10
2.359028
20
-1.589993
0
VERTEX
8
2
10
2.368563
20
-1.587032
0
VERTEX
8
2
10
2.378800
20
-1.586000
0
VERTEX
8
2
10
2.447200
20
-1.586000
0
VERTEX
8
2
10
2.457437
20
-1.587032
0
VERTEX
8
2
10
2.466972
20
-1.589993
0
VERTEX
8
2
10
2.475601
20
-1.594677
0
VERTEX
8
2
10
2.483119
20
-1.600881
0
VERTEX
8
2
10
2.489323
20
-1.608399
0
VERTEX
8
2
10
2.494007
20
-1.617028
0
VERTEX
8
2
10
2.496968
20
-1.626563
0
VERTEX
8
2
10
2.498000
20
-1.636800
0
SEQEND
8
2
0
POLYLINE
8
2
66
1
70
1
40
0
41
0
0
VERTEX
8
2
10
2.498000
20
-1.890800
0
VERTEX
8
2
10
2.498000
20
-1.919200
0
VERTEX
8
2
10
2.496968
20
-1.929437
0
VERTEX
8
2
10
2.494007
20
-1.938972
0
VERTEX
8
2
10
2.489323
20
-1.947601
0
VERTEX
8
2
10
2.483119
20
-1.955119
0
VERTEX
8
2
10
2.475601
20
-1.961323
0
VERTEX
8
2
10
2.466972
20
-1.966007
0
VERTEX
8
2
10
2.457437
20
-1.968968
0
VERTEX
8
2
10
2.447200
20
-1.970000
0
VERTEX
8
2
10
2.378800
20
-1.970000
0
VERTEX
8
2
10
2.368563
20
-1.968968
0
VERTEX
8
2
10
2.359028
20
-1.966007
0
VERTEX
8
2
10
2.350399
20
-1.961323
0
VERTEX
8
2
10
2.342881
20
-1.955119
0
VERTEX
8
2
10
2.336677
20
-1.947601
0
VERTEX
8
2
10
2.331993
20
-1.938972
0
VERTEX
8
2
10
2.329032
20
-1.929437
0
VERTEX
8
2
10
2.328000
20
-1.919200
0
VERTEX
8
2
10
2.328000
20
-1.890800
0
VERTEX
8
2
10
2.329032
20
-1.880563
0
VERTEX
8
2
10
2.331993
20
-1.871028
0
VERTEX
8
2
10
2.336677
20
-1.862399
0
VERTEX
8
2
10
2.342881
20
-1.854881
0
VERTEX
8
2
10
2.350399
20
-1.848677
0
VERTEX
8
2
10
2.359028
20
-1.843993
0
VERTEX
8
2
10
2.368563
20
-1.841032
0
VERTEX
8
2
10
2.378800
20
-1.840000
0
VERTEX
8
2
10
2.447200
20
-1.840000
0
VERTEX
8
2
10
2.457437
20
-1.841032
0
VERTEX
8
2
10
2.466972
20
-1.843993
0
VERTEX
8
2
10
2.475601
20
-1.848677
0
VERTEX
8
2
10
2.483119
20
-1.854881
0
VERTEX
8
2
10
2.489323
20
-1.862399
0
VERTEX
8
2
10
2.494007
20
-1.871028
0
VERTEX
8
2
10
2.496968
20
-1.880563
0
VERTEX
8
2
10
2.498000
20
-1.890800
0
SEQEND
8
2
0
POLYLINE
8
2
66
1
70
1
40
0
41
0
0
VERTEX
8
2
10
2.498000
20
-2.144800
0
VERTEX
8
2
10
2.498000
20
-2.173200
0
VERTEX
8
2
10
2.496968
20
-2.183437
0
VERTEX
8
2
10
2.494007
20
-2.192972
0
VERTEX
8
2
10
2.489323
20
-2.201601
0
VERTEX
8
2
10
2.483119
20
-2.209119
0
VERTEX
8
2
10
2.475601
20
-2.215323
0
VERTEX
8
2
10
2.466972
20
-2.220007
0
VERTEX
8
2
10
2.457437
20
-2.222968
0
VERTEX
8
2
10
2.447200
20
-2.224000
0
VERTEX
8
2
10
2.378800
20
-2.224000
0
VERTEX
8
2
10
2.368563
20
-2.222968
0
VERTEX
8
2
10
2.359028
20
-2.220007
0
VERTEX
8
2
10
2.350399
20
-2.215323
0
VERTEX
8
2
10
2.342881
20
-2.209119
0
VERTEX
8
2
10
2.336677
20
-2.201601
0
VERTEX
8
2
10
2.331993
20
-2.192972
0
VERTEX
8
2
10
2.329032
20
-2.183437
0
VERTEX
8
2
10
2.328000
20
-2.173200
0
VERTEX
8
2
10
2.328000
20
-2.144800
0
VERTEX
8
2
10
2.329032
20
-2.134563
0
VERTEX
8
2
10
2.331993
20
-2.125028
0
VERTEX
8
2
10
2.336677
20
-2.116399
0
VERTEX
8
2
10
2.342881
20
-2.108881
0
VERTEX
8
2
10
2.350399
20
-2.102677
0
VERTEX
8
2
10
2.359028
20
-2.097993
0
VERTEX
8
2
10
2.368563
20
-2.095032
0
VERTEX
8
2
10
2.378800
20
-2.094000
0
VERTEX
8
2
10
2.447200
20
-2.094000
0
VERTEX
8
2
10
2.457437
20
-2.095032
0
VERTEX
8
2
10
2.466972
20
-2.097993
0
VERTEX
8
2
10
2.475601
20
-2.102677
0
VERTEX
8
2
10
2.483119
20
-2.108881
0
VERTEX
8
2
10
2.489323
20
-2.116399
0
VERTEX
8
2
10
2.494007
20
-2.125028
0
VERTEX
8
2
10
2.496968
20
-2.134563
0
VERTEX
8
2
10
2.498000
20
-2.144800
0
SEQEND
8
2
0
POLYLINE
8
2
66
1
70
1
40
0
41
0
0
VERTEX
8
2
10
2.498000
20
-2.398800
0
VERTEX
8
2
10
2.498000
20
-2.427200
0
VERTEX
8
2
10
2.496968
20
-2.437437
0
VERTEX
8
2
10
2.494007
20
-2.446972
0
VERTEX
8
2
10
2.489323
20
-2.455601
0
VERTEX
8
2
10
2.483119
20
-2.463119
0
VERTEX
8
2
10
2.475601
20
-2.469323
0
VERTEX
8
2
10
2.466972
20
-2.474007
0
VERTEX
8
2
10
2.457437
20
-2.476968
0
VERTEX
8
2
10
2.447200
20
-2.478000
0
VERTEX
8
2
10
2.378800
20
-2.478000
0
VERTEX
8
2
10
2.368563
20
-2.476968
0
VERTEX
8
2
10
2.359028
20
-2.474007
0
VERTEX
8
2
10
2.350399
20
-2.469323
0
VERTEX
8
2
10
2.342881
20
-2.463119
0
VERTEX
8
2
10
2.336677
20
-2.455601
0
VERTEX
8
2
10
2.331993
20
-2.446972
0
VERTEX
8
2
10
2.329032
20
-2.437437
0
VERTEX
8
2
10
2.328000
20
-2.427200
0
VERTEX
8
2
10
2.328000
20
-2.398800
0
VERTEX
8
2
10
2.329032
20
-2.388563
0
VERTEX
8
2
10
2.331993
20
-2.379028
0
VERTEX
8
2
10
2.336677
20
-2.370399
0
VERTEX
8
2
10
2.342881
20
-2.362881
0
VERTEX
8
2
10
2.350399
20
-2.356677
0
VERTEX
8
2
10
2.359028
20
-2.351993
0
VERTEX
8
2
10
2.368563
20
-2.349032
0
VERTEX
8
2
10
2.378800
20
-2.348000
0
VERTEX
8
2
10
2.447200
20
-2.348000
0
VERTEX
8
2
10
2.457437
20
-2.349032
0
VERTEX
8
2
10
2.466972
20
-2.351993
0
VERTEX
8
2
10
2.475601
20
-2.356677
0
VERTEX
8
2
10
2.483119
20
-2.362881
0
VERTEX
8
2
10
2.489323
20
-2.370399
0
VERTEX
8
2
10
2.494007
20
-2.379028
0
VERTEX
8
2
10
2.496968
20
-2.388563
0
VERTEX
8
2
10
2.498000
20
-2.398800
0
SEQEND
8
2
0
POLYLINE
8
2
66
1
70
1
40
0
41
0
0
VERTEX
8
2
10
2.498000
20
-2.652800
0
VERTEX
8
2
10
2.498000
20
-2.681200
0
VERTEX
8
2
10
2.496968
20
-2.691437
0
VERTEX
8
2
10
2.494007
20
-2.700972
0
VERTEX
8
2
10
2.489323
20
-2.709601
0
VERTEX
8
2
10
2.483119
20
-2.717119
0
VERTEX
8
2
10
2.475601
20
-2.723323
0
VERTEX
8
2
10
2.466972
20
-2.728007
0
VERTEX
8
2
10
2.457437
20
-2.730968
0
VERTEX
8
2
10
2.447200
20
-2.732000
0
VERTEX
8
2
10
2.378800
20
-2.732000
0
VERTEX
8
2
10
2.368563
20
-2.730968
0
VERTEX
8
2
10
2.359028
20
-2.728007
0
VERTEX
8
2
10
2.350399
20
-2.723323
0
VERTEX
8
2
10
2.342881
20
-2.717119
0
VERTEX
8
2
10
2.336677
20
-2.709601
0
VERTEX
8
2
10
2.331993
20
-2.700972
0
VERTEX
8
2
10
2.329032
20
-2.691437
0
VERTEX
8
2
10
2.328000
20
-2.681200
0
VERTEX
8
2
10
2.328000
20
-2.652800
0
VERTEX
8
2
10
2.329032
20
-2.642563
0
VERTEX
8
2
10
2.331993
20
-2.633028
0
VERTEX
8
2
10
2.336677
20
-2.624399
0
VERTEX
8
2
10
2.342881
20
-2.616881
0
VERTEX
8
2
10
2.350399
20
-2.610677
0
VERTEX
8
2
10
2.359028
20
-2.605993
0
VERTEX
8
2
10
2.368563
20
-2.603032
0
VERTEX
8
2
10
2.378800
20
-2.602000
0
VERTEX
8
2
10
2.447200
20
-2.602000
0
VERTEX
8
2
10
2.457437
20
-2.603032
0
VERTEX
8
2
10
2.466972
20
-2.605993
0
VERTEX
8
2
10
2.475601
20
-2.610677
0
VERTEX
8
2
10
2.483119
20
-2.616881
0
VERTEX
8
2
10
2.489323
20
-2.624399
0
VERTEX
8
2
10
2.494007
20
-2.633028
0
VERTEX
8
2
10
2.496968
20
-2.642563
0
VERTEX
8
2
10
2.498000
20
-2.652800
0
SEQEND
8
2
0
POLYLINE
8
2
66
1
70
1
40
0
41
0
0
VERTEX
8
2
10
2.498000
20
-2.906800
0
VERTEX
8
2
10
2.498000
20
-2.935200
0
VERTEX
8
2
10
2.496968
20
-2.945437
0
VERTEX
8
2
10
2.494007
20
-2.954972
0
VERTEX
8
2
10
2.489323
20
-2.963601
0
VERTEX
8
2
10
2.483119
20
-2.971119
0
VERTEX
8
2
10
2.475601
20
-2.977323
0
VERTEX
8
2
10
2.466972
20
-2.982007
0
VERTEX
8
2
10
2.457437
20
-2.984968
0
VERTEX
8
2
10
2.447200
20
-2.986000
0
VERTEX
8
2
10
2.378800
20
-2.986000
0
VERTEX
8
2
10
2.368563
20
-2.984968
0
VERTEX
8
2
10
2.359028
20
-2.982007
0
VERTEX
8
2
10
2.350399
20
-2.977323
0
VERTEX
8
2
10
2.342881
20
-2.971119
0
VERTEX
8
2
10
2.336677
20
-2.963601
0
VERTEX
8
2
10
2.331993
20
-2.954972
0
VERTEX
8
2
10
2.329032
20
-2.945437
0
VERTEX
8
2
10
2.328000
20
-2.935200
0
VERTEX
8
2
10
2.328000
20
-2.906800
0
VERTEX
8
2
10
2.329032
20
-2.896563
0
VERTEX
8
2
10
2.331993
20
-2.887028
0
VERTEX
8
2
10
2.336677
20
-2.878399
0
VERTEX
8
2
10
2.342881
20
-2.870881
0
VERTEX
8
2
10
2.350399
20
-2.864677
0
VERTEX
8
2
10
2.359028
20
-2.859993
0
VERTEX
8
2
10
2.368563
20
-2.857032
0
VERTEX
8
2
10
2.378800
20
-2.856000
0
VERTEX
8
2
10
2.447200
20
-2.856000
0
VERTEX
8
2
10
2.457437
20
-2.857032
0
VERTEX
8
2
10
2.466972
20
-2.859993
0
VERTEX
8
2
10
2.475601
20
-2.864677
0
VERTEX
8
2
10
2.483119
20
-2.870881
0
VERTEX
8
2
10
2.489323
20
-2.878399
0
VERTEX
8
2
10
2.494007
20
-2.887028
0
VERTEX
8
2
10
2.496968
20
-2.896563
0
VERTEX
8
2
10
2.498000
20
-2.906800
0
SEQEND
8
2
0
POLYLINE
8
2
66
1
70
1
40
0
41
0
0
VERTEX
8
2
10
2.498000
20
-3.160800
0
VERTEX
8
2
10
2.498000
20
-3.189200
0
VERTEX
8
2
10
2.496968
20
-3.199437
0
VERTEX
8
2
10
2.494007
20
-3.208972
0
VERTEX
8
2
10
2.489323
20
-3.217601
0
VERTEX
8
2
10
2.483119
20
-3.225119
0
VERTEX
8
2
10
2.475601
20
-3.231323
0
VERTEX
8
2
10
2.466972
20
-3.236007
0
VERTEX
8
2
10
2.457437
20
-3.238968
0
VERTEX
8
2
10
2.447200
20
-3.240000
0
VERTEX
8
2
10
2.378800
20
-3.240000
0
VERTEX
8
2
10
2.368563
20
-3.238968
0
VERTEX
8
2
10
2.359028
20
-3.236007
0
VERTEX
8
2
10
2.350399
20
-3.231323
0
VERTEX
8
2
10
2.342881
20
-3.225119
0
VERTEX
8
2
10
2.336677
20
-3.217601
0
VERTEX
8
2
10
2.331993
20
-3.208972
0
VERTEX
8
2
10
2.329032
20
-3.199437
0
VERTEX
8
2
10
2.328000
20
-3.189200
0
VERTEX
8
2
10
2.328000
20
-3.160800
0
VERTEX
8
2
10
2.329032
20
-3.150563
0
VERTEX
8
2
10
2.331993
20
-3.141028
0
VERTEX
8
2
10
2.336677
20
-3.132399
0
VERTEX
8
2
10
2.342881
20
-3.124881
0
VERTEX
8
2
10
2.350399
20
-3.118677
0
VERTEX
8
2
10
2.359028
20
-3.113993
0
VERTEX
8
2
10
2.368563
20
-3.111032
0
VERTEX
8
2
10
2.378800
20
-3.110000
0
VERTEX
8
2
10
2.447200
20
-3.110000
0
VERTEX
8
2
10
2.457437
20
-3.111032
0
VERTEX
8
2
10
2.466972
20
-3.113993
0
VERTEX
8
2
10
2.475601
20
-3.118677
0
VERTEX
8
2
10
2.483119
20
-3.124881
0
VERTEX
8
2
10
2.489323
20
-3.132399
0
VERTEX
8
2
10
2.494007
20
-3.141028
0
VERTEX
8
2
10
2.496968
20
-3.150563
0
VERTEX
8
2
10
2.498000
20
-3.160800
0
SEQEND
8
2
0
POLYLINE
8
2
66
1
70
1
40
0
41
0
0
VERTEX
8
2
10
2.498000
20
-3.414800
0
VERTEX
8
2
10
2.498000
20
-3.443200
0
VERTEX
8
2
10
2.496968
20
-3.453437
0
VERTEX
8
2
10
2.494007
20
-3.462972
0
VERTEX
8
2
10
2.489323
20
-3.471601
0
VERTEX
8
2
10
2.483119
20
-3.479119
0
VERTEX
8
2
10
2.475601
20
-3.485323
0
VERTEX
8
2
10
2.466972
20
-3.490007
0
VERTEX
8
2
10
2.457437
20
-3.492968
0
VERTEX
8
2
10
2.447200
20
-3.494000
0
VERTEX
8
2
10
2.378800
20
-3.494000
0
VERTEX
8
2
10
2.368563
20
-3.492968
0
VERTEX
8
2
10
2.359028
20
-3.490007
0
VERTEX
8
2
10
2.350399
20
-3.485323
0
VERTEX
8
2
10
2.342881
20
-3.479119
0
VERTEX
8
2
10
2.336677
20
-3.471601
0
VERTEX
8
2
10
2.331993
20
-3.462972
0
VERTEX
8
2
10
2.329032
20
-3.453437
0
VERTEX
8
2
10
2.328000
20
-3.443200
0
VERTEX
8
2
10
2.328000
20
-3.414800
0
VERTEX
8
2
10
2.329032
20
-3.404563
0
VERTEX
8
2
10
2.331993
20
-3.395028
0
VERTEX
8
2
10
2.336677
20
-3.386399
0
VERTEX
8
2
10
2.342881
20
-3.378881
0
VERTEX
8
2
10
2.350399
20
-3.372677
0
VERTEX
8
2
10
2.359028
20
-3.367993
0
VERTEX
8
2
10
2.368563
20
-3.365032
0
VERTEX
8
2
10
2.378800
20
-3.364000
0
VERTEX
8
2
10
2.447200
20
-3.364000
0
VERTEX
8
2
10
2.457437
20
-3.365032
0
VERTEX
8
2
10
2.466972
20
-3.367993
0
VERTEX
8
2
10
2.475601
20
-3.372677
0
VERTEX
8
2
10
2.483119
20
-3.378881
0
VERTEX
8
2
10
2.489323
20
-3.386399
0
VERTEX
8
2
10
2.494007
20
-3.395028
0
VERTEX
8
2
10
2.496968
20
-3.404563
0
VERTEX
8
2
10
2.498000
20
-3.414800
0
SEQEND
8
2
0
POLYLINE
8
2
66
1
70
1
40
0
41
0
0
VERTEX
8
2
10
2.498000
20
-3.668800
0
VERTEX
8
2
10
2.498000
20
-3.697200
0
VERTEX
8
2
10
2.496968
20
-3.707437
0
VERTEX
8
2
10
2.494007
20
-3.716972
0
VERTEX
8
2
10
2.489323
20
-3.725601
0
VERTEX
8
2
10
2.483119
20
-3.733119
0
VERTEX
8
2
10
2.475601
20
-3.739323
0
VERTEX
8
2
10
2.466972
20
-3.744007
0
VERTEX
8
2
10
2.457437
20
-3.746968
0
VERTEX
8
2
10
2.447200
20
-3.748000
0
VERTEX
8
2
10
2.378800
20
-3.748000
0
VERTEX
8
2
10
2.368563
20
-3.746968
0
VERTEX
8
2
10
2.359028
20
-3.744007
0
VERTEX
8
2
10
2.350399
20
-3.739323
0
VERTEX
8
2
10
2.342881
20
-3.733119
0
VERTEX
8
2
10
2.336677
20
-3.725601
0
VERTEX
8
2
10
2.331993
20
-3.716972
0
VERTEX
8
2
10
2.329032
20
-3.707437
0
VERTEX
8
2
10
2.328000
20
-3.697200
0
VERTEX
8
2
10
2.328000
20
-3.668800
0
VERTEX
8
2
10
2.329032
20
-3.658563
0
VERTEX
8
2
10
2.331993
20
-3.649028
0
VERTEX
8
2
10
2.336677
20
-3.640399
0
VERTEX
8
2
10
2.342881
20
-3.632881
0
VERTEX
8
2
10
2.350399
20
-3.626677
0
VERTEX
8
2
10
2.359028
20
-3.621993
0
VERTEX
8
2
10
2.368563
20
-3.619032
0
VERTEX
8
2
10
2.378800
20
-3.618000
0
VERTEX
8
2
10
2.447200
20
-3.618000
0
VERTEX
8
2
10
2.457437
20
-3.619032
0
VERTEX
8
2
10
2.466972
20
-3.621993
0
VERTEX
8
2
10
2.475601
20
-3.626677
0
VERTEX
8
2
10
2.483119
20
-3.632881
0
VERTEX
8
2
10
2.489323
20
-3.640399
0
VERTEX
8
2
10
2.494007
20
-3.649028
0
VERTEX
8
2
10
2.496968
20
-3.658563
0
VERTEX
8
2
10
2.498000
20
-3.668800
0
SEQEND
8
2
0
POLYLINE
8
2
66
1
70
1
40
0
41
0
0
VERTEX
8
2
10
2.498000
20
-3.922800
0
VERTEX
8
2
10
2.498000
20
-3.951200
0
VERTEX
8
2
10
2.496968
20
-3.961437
0
VERTEX
8
2
10
2.494007
20
-3.970972
0
VERTEX
8
2
10
2.489323
20
-3.979601
0
VERTEX
8
2
10
2.483119
20
-3.987119
0
VERTEX
8
2
10
2.475601
20
-3.993323
0
VERTEX
8
2
10
2.466972
20
-3.998007
0
VERTEX
8
2
10
2.457437
20
-4.000968
0
VERTEX
8
2
10
2.447200
20
-4.002000
0
VERTEX
8
2
10
2.378800
20
-4.002000
0
VERTEX
8
2
10
2.368563
20
-4.000968
0
VERTEX
8
2
10
2.359028
20
-3.998007
0
VERTEX
8
2
10
2.350399
20
-3.993323
0
VERTEX
8
2
10
2.342881
20
-3.987119
0
VERTEX
8
2
10
2.336677
20
-3.979601
0
VERTEX
8
2
10
2.331993
20
-3.970972
0
VERTEX
8
2
10
2.329032
20
-3.961437
0
VERTEX
8
2
10
2.328000
20
-3.951200
0
VERTEX
8
2
10
2.328000
20
-3.922800
0
VERTEX
8
2
10
2.329032
20
-3.912563
0
VERTEX
8
2
10
2.331993
20
-3.903028
0
VERTEX
8
2
10
2.336677
20
-3.894399
0
VERTEX
8
2
10
2.342881
20
-3.886881
0
VERTEX
8
2
10
2.350399
20
-3.880677
0
VERTEX
8
2
10
2.359028
20
-3.875993
0
VERTEX
8
2
10
2.368563
20
-3.873032
0
VERTEX
8
2
10
2.378800
20
-3.872000
0
VERTEX
8
2
10
2.447200
20
-3.872000
0
VERTEX
8
2
10
2.457437
20
-3.873032
0
VERTEX
8
2
10
2.466972
20
-3.875993
0
VERTEX
8
2
10
2.475601
20
-3.880677
0
VERTEX
8
2
10
2.483119
20
-3.886881
0
VERTEX
8
2
10
2.489323
20
-3.894399
0
VERTEX
8
2
10
2.494007
20
-3.903028
0
VERTEX
8
2
10
2.496968
20
-3.912563
0
VERTEX
8
2
10
2.498000
20
-3.922800
0
SEQEND
8
2
0
POLYLINE
8
2
66
1
70
1
40
0
41
0
0
VERTEX
8
2
10
2.498000
20
-4.176800
0
VERTEX
8
2
10
2.498000
20
-4.205200
0
VERTEX
8
2
10
2.496968
20
-4.215437
0
VERTEX
8
2
10
2.494007
20
-4.224972
0
VERTEX
8
2
10
2.489323
20
-4.233601
0
VERTEX
8
2
10
2.483119
20
-4.241119
0
VERTEX
8
2
10
2.475601
20
-4.247323
0
VERTEX
8
2
10
2.466972
20
-4.252007
0
VERTEX
8
2
10
2.457437
20
-4.254968
0
VERTEX
8
2
10
2.447200
20
-4.256000
0
VERTEX
8
2
10
2.378800
20
-4.256000
0
VERTEX
8
2
10
2.368563
20
-4.254968
0
VERTEX
8
2
10
2.359028
20
-4.252007
0
VERTEX
8
2
10
2.350399
20
-4.247323
0
VERTEX
8
2
10
2.342881
20
-4.241119
0
VERTEX
8
2
10
2.336677
20
-4.233601
0
VERTEX
8
2
10
2.331993
20
-4.224972
0
VERTEX
8
2
10
2.329032
20
-4.215437
0
VERTEX
8
2
10
2.328000
20
-4.205200
0
VERTEX
8
2
10
2.328000
20
-4.176800
0
VERTEX
8
2
10
2.329032
20
-4.166563
0
VERTEX
8
2
10
2.331993
20
-4.157028
0
VERTEX
8
2
10
2.336677
20
-4.148399
0
VERTEX
8
2
10
2.342881
20
-4.140881
0
VERTEX
8
2
10
2.350399
20
-4.134677
0
VERTEX
8
2
10
2.359028
20
-4.129993
0
VERTEX
8
2
10
2.368563
20
-4.127032
0
VERTEX
8
2
10
2.378800
20
-4.126000
0
VERTEX
8
2
10
2.447200
20
-4.126000
0
VERTEX
8
2
10
2.457437
20
-4.127032
0
VERTEX
8
2
10
2.466972
20
-4.129993
0
VERTEX
8
2
10
2.475601
20
-4.134677
0
VERTEX
8
2
10
2.483119
20
-4.140881
0
VERTEX
8
2
10
2.489323
20
-4.148399
0
VERTEX
8
2
10
2.494007
20
-4.157028
0
VERTEX
8
2
10
2.496968
20
-4.166563
0
VERTEX
8
2
10
2.498000
20
-4.176800
0
SEQEND
8
2
0
POLYLINE
8
2
66
1
70
1
40
0
41
0
0
VERTEX
8
2
10
2.498000
20
-4.430800
0
VERTEX
8
2
10
2.498000
20
-4.459200
0
VERTEX
8
2
10
2.496968
20
-4.469437
0
VERTEX
8
2
10
2.494007
20
-4.478972
0
VERTEX
8
2
10
2.489323
20
-4.487601
0
VERTEX
8
2
10
2.483119
20
-4.495119
0
VERTEX
8
2
10
2.475601
20
-4.501323
0
VERTEX
8
2
10
2.466972
20
-4.506007
0
VERTEX
8
2
10
2.457437
20
-4.508968
0
VERTEX
8
2
10
2.447200
20
-4.510000
0
VERTEX
8
2
10
2.378800
20
-4.510000
0
VERTEX
8
2
10
2.368563
20
-4.508968
0
VERTEX
8
2
10
2.359028
20
-4.506007
0
VERTEX
8
2
10
2.350399
20
-4.501323
0
VERTEX
8
2
10
2.342881
20
-4.495119
0
VERTEX
8
2
10
2.336677
20
-4.487601
0
VERTEX
8
2
10
2.331993
20
-4.478972
0
VERTEX
8
2
10
2.329032
20
-4.469437
0
VERTEX
8
2
10
2.328000
20
-4.459200
0
VERTEX
8
2
10
2.328000
20
-4.430800
0
VERTEX
8
2
10
2.329032
20
-4.420563
0
VERTEX
8
2
10
2.331993
20
-4.411028
0
VERTEX
8
2
10
2.336677
20
-4.402399
0
VERTEX
8
2
10
2.342881
20
-4.394881
0
VERTEX
8
2
10
2.350399
20
-4.388677
0
VERTEX
8
2
10
2.359028
20
-4.383993
0
VERTEX
8
2
10
2.368563
20
-4.381032
0
VERTEX
8
2
10
2.378800
20
-4.380000
0
VERTEX
8
2
10
2.447200
20
-4.380000
0
VERTEX
8
2
10
2.457437
20
-4.381032
0
VERTEX
8
2
10
2.466972
20
-4.383993
0
VERTEX
8
2
10
2.475601
20
-4.388677
0
VERTEX
8
2
10
2.483119
20
-4.394881
0
VERTEX
8
2
10
2.489323
20
-4.402399
0
VERTEX
8
2
10
2.494007
20
-4.411028
0
VERTEX
8
2
10
2.496968
20
-4.420563
0
VERTEX
8
2
10
2.498000
20
-4.430800
0
SEQEND
8
2
0
POLYLINE
8
2
66
1
70
1
40
0
41
0
0
VERTEX
8
2
10
2.498000
20
-4.684800
0
VERTEX
8
2
10
2.498000
20
-4.713200
0
VERTEX
8
2
10
2.496968
20
-4.723437
0
VERTEX
8
2
10
2.494007
20
-4.732972
0
VERTEX
8
2
10
2.489323
20
-4.741601
0
VERTEX
8
2
10
2.483119
20
-4.749119
0
VERTEX
8
2
10
2.475601
20
-4.755323
0
VERTEX
8
2
10
2.466972
20
-4.760007
0
VERTEX
8
2
10
2.457437
20
-4.762968
0
VERTEX
8
2
10
2.447200
20
-4.764000
0
VERTEX
8
2
10
2.378800
20
-4.764000
0
VERTEX
8
2
10
2.368563
20
-4.762968
0
VERTEX
8
2
10
2.359028
20
-4.760007
0
VERTEX
8
2
10
2.350399
20
-4.755323
0
VERTEX
8
2
10
2.342881
20
-4.749119
0
VERTEX
8
2
10
2.336677
20
-4.741601
0
VERTEX
8
2
10
2.331993
20
-4.732972
0
VERTEX
8
2
10
2.329032
20
-4.723437
0
VERTEX
8
2
10
2.328000
20
-4.713200
0
VERTEX
8
2
10
2.328000
20
-4.684800
0
VERTEX
8
2
10
2.329032
20
-4.674563
0
VERTEX
8
2
10
2.331993
20
-4.665028
0
VERTEX
8
2
10
2.336677
20
-4.656399
0
VERTEX
8
2
10
2.342881
20
-4.648881
0
VERTEX
8
2
10
2.350399
20
-4.642677
0
VERTEX
8
2
10
2.359028
20
-4.637993
0
VERTEX
8
2
10
2.368563
20
-4.635032
0
VERTEX
8
2
10
2.378800
20
-4.634000
0
VERTEX
8
2
10
2.447200
20
-4.634000
0
VERTEX
8
2
10
2.457437
20
-4.635032
0
VERTEX
8
2
10
2.466972
20
-4.637993
0
VERTEX
8
2
10
2.475601
20
-4.642677
0
VERTEX
8
2
10
2.483119
20
-4.648881
0
VERTEX
8
2
10
2.489323
20
-4.656399
0
VERTEX
8
2
10
2.494007
20
-4.665028
0
VERTEX
8
2
10
2.496968
20
-4.674563
0
VERTEX
8
2
10
2.498000
20
-4.684800
0
SEQEND
8
2
0
POLYLINE
8
2
66
1
70
1
40
0
41
0
0
VERTEX
8
2
10
2.498000
20
-4.938800
0
VERTEX
8
2
10
2.498000
20
-4.967200
0
VERTEX
8
2
10
2.496968
20
-4.977437
0
VERTEX
8
2
10
2.494007
20
-4.986972
0
VERTEX
8
2
10
2.489323
20
-4.995601
0
VERTEX
8
2
10
2.483119
20
-5.003119
0
VERTEX
8
2
10
2.475601
20
-5.009323
0
VERTEX
8
2
10
2.466972
20
-5.014007
0
VERTEX
8
2
10
2.457437
20
-5.016968
0
VERTEX
8
2
10
2.447200
20
-5.018000
0
VERTEX
8
2
10
2.378800
20
-5.018000
0
VERTEX
8
2
10
2.368563
20
-5.016968
0
VERTEX
8
2
10
2.359028
20
-5.014007
0
VERTEX
8
2
10
2.350399
20
-5.009323
0
VERTEX
8
2
10
2.342881
20
-5.003119
0
VERTEX
8
2
10
2.336677
20
-4.995601
0
VERTEX
8
2
10
2.331993
20
-4.986972
0
VERTEX
8
2
10
2.329032
20
-4.977437
0
VERTEX
8
2
10
2.328000
20
-4.967200
0
VERTEX
8
2
10
2.328000
20
-4.938800
0
VERTEX
8
2
10
2.329032
20
-4.928563
0
VERTEX
8
2
10
2.331993
20
-4.919028
0
VERTEX
8
2
10
2.336677
20
-4.910399
0
VERTEX
8
2
10
2.342881
20
-4.902881
0
VERTEX
8
2
10
2.350399
20
-4.896677
0
VERTEX
8
2
10
2.359028
20
-4.891993
0
VERTEX
8
2
10
2.368563
20
-4.889032
0
VERTEX
8
2
10
2.378800
20
-4.888000
0
VERTEX
8
2
10
2.447200
20
-4.888000
0
VERTEX
8
2
10
2.457437
20
-4.889032
0
VERTEX
8
2
10
2.466972
20
-4.891993
0
VERTEX
8
2
10
2.475601
20
-4.896677
0
VERTEX
8
2
10
2.483119
20
-4.902881
0
VERTEX
8
2
10
2.489323
20
-4.910399
0
VERTEX
8
2
10
2.494007
20
-4.919028
0
VERTEX
8
2
10
2.496968
20
-4.928563
0
VERTEX
8
2
10
2.498000
20
-4.938800
0
SEQEND
8
2
0
POLYLINE
8
2
66
1
70
1
40
0
41
0
0
VERTEX
8
2
10
2.498000
20
-5.192800
0
VERTEX
8
2
10
2.498000
20
-5.221200
0
VERTEX
8
2
10
2.496968
20
-5.231437
0
VERTEX
8
2
10
2.494007
20
-5.240972
0
VERTEX
8
2
10
2.489323
20
-5.249601
0
VERTEX
8
2
10
2.483119
20
-5.257119
0
VERTEX
8
2
10
2.475601
20
-5.263323
0
VERTEX
8
2
10
2.466972
20
-5.268007
0
VERTEX
8
2
10
2.457437
20
-5.270968
0
VERTEX
8
2
10
2.447200
20
-5.272000
0
VERTEX
8
2
10
2.378800
20
-5.272000
0
VERTEX
8
2
10
2.368563
20
-5.270968
0
VERTEX
8
2
10
2.359028
20
-5.268007
0
VERTEX
8
2
10
2.350399
20
-5.263323
0
VERTEX
8
2
10
2.342881
20
-5.257119
0
VERTEX
8
2
10
2.336677
20
-5.249601
0
VERTEX
8
2
10
2.331993
20
-5.240972
0
VERTEX
8
2
10
2.329032
20
-5.231437
0
VERTEX
8
2
10
2.328000
20
-5.221200
0
VERTEX
8
2
10
2.328000
20
-5.192800
0
VERTEX
8
2
10
2.329032
20
-5.182563
0
VERTEX
8
2
10
2.331993
20
-5.173028
0
VERTEX
8
2
10
2.336677
20
-5.164399
0
VERTEX
8
2
10
2.342881
20
-5.156881
0
VERTEX
8
2
10
2.350399
20
-5.150677
0
VERTEX
8
2
10
2.359028
20
-5.145993
0
VERTEX
8
2
10
2.368563
20
-5.143032
0
VERTEX
8
2
10
2.378800
20
-5.142000
0
VERTEX
8
2
10
2.447200
20
-5.142000
0
VERTEX
8
2
10
2.457437
20
-5.143032
0
VERTEX
8
2
10
2.466972
20
-5.145993
0
VERTEX
8
2
10
2.475601
20
-5.150677
0
VERTEX
8
2
10
2.483119
20
-5.156881
0
VERTEX
8
2
10
2.489323
20
-5.164399
0
VERTEX
8
2
10
2.494007
20
-5.173028
0
VERTEX
8
2
10
2.496968
20
-5.182563
0
VERTEX
8
2
10
2.498000
20
-5.192800
0
SEQEND
8
2
0
POLYLINE
8
2
66
1
70
1
40
0
41
0
0
VERTEX
8
2
10
2.498000
20
-5.446800
0
VERTEX
8
2
10
2.498000
20
-5.475200
0
VERTEX
8
2
10
2.496968
20
-5.485437
0
VERTEX
8
2
10
2.494007
20
-5.494972
0
VERTEX
8
2
10
2.489323
20
-5.503601
0
VERTEX
8
2
10
2.483119
20
-5.511119
0
VERTEX
8
2
10
2.475601
20
-5.517323
0
VERTEX
8
2
10
2.466972
20
-5.522007
0
VERTEX
8
2
10
2.457437
20
-5.524968
0
VERTEX
8
2
10
2.447200
20
-5.526000
0
VERTEX
8
2
10
2.378800
20
-5.526000
0
VERTEX
8
2
10
2.368563
20
-5.524968
0
VERTEX
8
2
10
2.359028
20
-5.522007
0
VERTEX
8
2
10
2.350399
20
-5.517323
0
VERTEX
8
2
10
2.342881
20
-5.511119
0
VERTEX
8
2
10
2.336677
20
-5.503601
0
VERTEX
8
2
10
2.331993
20
-5.494972
0
VERTEX
8
2
10
2.329032
20
-5.485437
0
VERTEX
8
2
10
2.328000
20
-5.475200
0
VERTEX
8
2
10
2.328000
20
-5.446800
0
VERTEX
8
2
10
2.329032
20
-5.436563
0
VERTEX
8
2
10
2.331993
20
-5.427028
0
VERTEX
8
2
10
2.336677
20
-5.418399
0
VERTEX
8
2
10
2.342881
20
-5.410881
0
VERTEX
8
2
10
2.350399
20
-5.404677
0
VERTEX
8
2
10
2.359028
20
-5.399993
0
VERTEX
8
2
10
2.368563
20
-5.397032
0
VERTEX
8
2
10
2.378800
20
-5.396000
0
VERTEX
8
2
10
2.447200
20
-5.396000
0
VERTEX
8
2
10
2.457437
20
-5.397032
0
VERTEX
8
2
10
2.466972
20
-5.399993
0
VERTEX
8
2
10
2.475601
20
-5.404677
0
VERTEX
8
2
10
2.483119
20
-5.410881
0
VERTEX
8
2
10
2.489323
20
-5.418399
0
VERTEX
8
2
10
2.494007
20
-5.427028
0
VERTEX
8
2
10
2.496968
20
-5.436563
0
VERTEX
8
2
10
2.498000
20
-5.446800
0
SEQEND
8
2
0
INSERT
8
2
2
EPAD
10
0.360760
20
-5.760260
41
0.067001
42
0.067001
0
CIRCLE
8
0
10
0.360760
20
-5.760260
40
0.002540
0
INSERT
8
2
2
EPAD
10
0.938760
20
-5.760260
41
0.067001
42
0.067001
0
CIRCLE
8
0
10
0.938760
20
-5.760260
40
0.002540
0
POLYLINE
8
2
66
1
70
1
40
0
41
0
0
VERTEX
8
2
10
0.180460
20
-5.595268
0
VERTEX
8
2
10
0.255060
20
-5.595268
0
VERTEX
8
2
10
0.257619
20
-5.595526
0
VERTEX
8
2
10
0.260003
20
-5.596266
0
VERTEX
8
2
10
0.262160
20
-5.597437
0
VERTEX
8
2
10
0.264040
20
-5.598988
0
VERTEX
8
2
10
0.265591
20
-5.600868
0
VERTEX
8
2
10
0.266762
20
-5.603025
0
VERTEX
8
2
10
0.267502
20
-5.605409
0
VERTEX
8
2
10
0.267760
20
-5.607968
0
VERTEX
8
2
10
0.267760
20
-5.812568
0
VERTEX
8
2
10
0.267502
20
-5.815127
0
VERTEX
8
2
10
0.266762
20
-5.817511
0
VERTEX
8
2
10
0.265591
20
-5.819668
0
VERTEX
8
2
10
0.264040
20
-5.821548
0
VERTEX
8
2
10
0.262160
20
-5.823099
0
VERTEX
8
2
10
0.260003
20
-5.824270
0
VERTEX
8
2
10
0.257619
20
-5.825010
0
VERTEX
8
2
10
0.255060
20
-5.825268
0
VERTEX
8
2
10
0.180460
20
-5.825268
0
VERTEX
8
2
10
0.177901
20
-5.825010
0
VERTEX
8
2
10
0.175517
20
-5.824270
0
VERTEX
8
2
10
0.173360
20
-5.823099
0
VERTEX
8
2
10
0.171480
20
-5.821548
0
VERTEX
8
2
10
0.169929
20
-5.819668
0
VERTEX
8
2
10
0.168758
20
-5.817511
0
VERTEX
8
2
10
0.168018
20
-5.815127
0
VERTEX
8
2
10
0.167760
20
-5.812568
0
VERTEX
8
2
10
0.167760
20
-5.607968
0
VERTEX
8
2
10
0.168018
20
-5.605409
0
VERTEX
8
2
10
0.168758
20
-5.603025
0
VERTEX
8
2
10
0.169929
20
-5.600868
0
VERTEX
8
2
10
0.171480
20
-5.598988
0
VERTEX
8
2
10
0.173360
20
-5.597437
0
VERTEX
8
2
10
0.175517
20
-5.596266
0
VERTEX
8
2
10
0.177901
20
-5.595526
0
VERTEX
8
2
10
0.180460
20
-5.595268
0
SEQEND
8
2
0
POLYLINE
8
2
66
1
70
1
40
0
41
0
0
VERTEX
8
2
10
1.044460
20
-5.595268
0
VERTEX
8
2
10
1.119060
20
-5.595268
0
VERTEX
8
2
10
1.121619
20
-5.595526
0
VERTEX
8
2
10
1.124003
20
-5.596266
0
VERTEX
8
2
10
1.126160
20
-5.597437
0
VERTEX
8
2
10
1.128040
20
-5.598988
0
VERTEX
8
2
10
1.129591
20
-5.600868
0
VERTEX
8
2
10
1.130762
20
-5.603025
0
VERTEX
8
2
10
1.131502
20
-5.605409
0
VERTEX
8
2
10
1.131760
20
-5.607968
0
VERTEX
8
2
10
1.131760
20
-5.812568
0
VERTEX
8
2
10
1.131502
20
-5.815127
0
VERTEX
8
2
10
1.130762
20
-5.817511
0
VERTEX
8
2
10
1.129591
20
-5.819668
0
VERTEX
8
2
10
1.128040
20
-5.821548
0
VERTEX
8
2
10
1.126160
20
-5.823099
0
VERTEX
8
2
10
1.124003
20
-5.824270
0
VERTEX
8
2
10
1.121619
20
-5.825010
0
VERTEX
8
2
10
1.119060
20
-5.825268
0
VERTEX
8
2
10
1.044460
20
-5.825268
0
VERTEX
8
2
10
1.041901
20
-5.825010
0
VERTEX
8
2
10
1.039517
20
-5.824270
0
VERTEX
8
2
10
1.037360
20
-5.823099
0
VERTEX
8
2
10
1.035480
20
-5.821548
0
VERTEX
8
2
10
1.033929
20
-5.819668
0
VERTEX
8
2
10
1.032758
20
-5.817511
0
VERTEX
8
2
10
1.032018
20
-5.815127
0
VERTEX
8
2
10
1.031760
20
-5.812568
0
VERTEX
8
2
10
1.031760
20
-5.607968
0
VERTEX
8
2
10
1.032018
20
-5.605409
0
VERTEX
8
2
10
1.032758
20
-5.603025
0
VERTEX
8
2
10
1.033929
20
-5.600868
0
VERTEX
8
2
10
1.035480
20
-5.598988
0
VERTEX
8
2
10
1.037360
20
-5.597437
0
VERTEX
8
2
10
1.039517
20
-5.596266
0
VERTEX
8
2
10
1.041901
20
-5.595526
0
VERTEX
8
2
10
1.044460
20
-5.595268
0
SEQEND
8
2
0
POLYLINE
8
2
66
1
70
1
40
0
41
0
0
VERTEX
8
2
10
0.178320
20
-6.028260
0
VERTEX
8
2
10
0.257200
20
-6.028260
0
VERTEX
8
2
10
0.264366
20
-6.028983
0
VERTEX
8
2
10
0.271040
20
-6.031055
0
VERTEX
8
2
10
0.277081
20
-6.034334
0
VERTEX
8
2
10
0.282344
20
-6.038676
0
VERTEX
8
2
10
0.286686
20
-6.043939
0
VERTEX
8
2
10
0.289965
20
-6.049980
0
VERTEX
8
2
10
0.292037
20
-6.056654
0
VERTEX
8
2
10
0.292760
20
-6.063820
0
VERTEX
8
2
10
0.292760
20
-6.192700
0
VERTEX
8
2
10
0.292037
20
-6.199866
0
VERTEX
8
2
10
0.289965
20
-6.206540
0
VERTEX
8
2
10
0.286686
20
-6.212581
0
VERTEX
8
2
10
0.282344
20
-6.217844
0
VERTEX
8
2
10
0.277081
20
-6.222186
0
VERTEX
8
2
10
0.271040
20
-6.225465
0
VERTEX
8
2
10
0.264366
20
-6.227537
0
VERTEX
8
2
10
0.257200
20
-6.228260
0
VERTEX
8
2
10
0.178320
20
-6.228260
0
VERTEX
8
2
10
0.171154
20
-6.227537
0
VERTEX
8
2
10
0.164480
20
-6.225465
0
VERTEX
8
2
10
0.158439
20
-6.222186
0
VERTEX
8
2
10
0.153176
20
-6.217844
0
VERTEX
8
2
10
0.148834
20
-6.212581
0
VERTEX
8
2
10
0.145555
20
-6.206540
0
VERTEX
8
2
10
0.143483
20
-6.199866
0
VERTEX
8
2
10
0.142760
20
-6.192700
0
VERTEX
8
2
10
0.142760
20
-6.063820
0
VERTEX
8
2
10
0.143483
20
-6.056654
0
VERTEX
8
2
10
0.145555
20
-6.049980
0
VERTEX
8
2
10
0.148834
20
-6.043939
0
VERTEX
8
2
10
0.153176
20
-6.038676
0
VERTEX
8
2
10
0.158439
20
-6.034334
0
VERTEX
8
2
10
0.164480
20
-6.031055
0
VERTEX
8
2
10
0.171154
20
-6.028983
0
VERTEX
8
2
10
0.178320
20
-6.028260
0
SEQEND
8
2
0
POLYLINE
8
2
66
1
70
1
40
0
41
0
0
VERTEX
8
2
10
1.042320
20
-6.028260
0
VERTEX
8
2
10
1.121200
20
-6.028260
0
VERTEX
8
2
10
1.128366
20
-6.028983
0
VERTEX
8
2
10
1.135040
20
-6.031055
0
VERTEX
8
2
10
1.141081
20
-6.034334
0
VERTEX
8
2
10
1.146344
20
-6.038676
0
VERTEX
8
2
10
1.150686
20
-6.043939
0
VERTEX
8
2
10
1.153965
20
-6.049980
0
VERTEX
8
2
10
1.156037
20
-6.056654
0
VERTEX
8
2
10
1.156760
20
-6.063820
0
VERTEX
8
2
10
1.156760
20
-6.192700
0
VERTEX
8
2
10
1.156037
20
-6.199866
0
VERTEX
8
2
10
1.153965
20
-6.206540
0
VERTEX
8
2
10
1.150686
20
-6.212581
0
VERTEX
8
2
10
1.146344
20
-6.217844
0
VERTEX
8
2
10
1.141081
20
-6.222186
0
VERTEX
8
2
10
1.135040
20
-6.225465
0
VERTEX
8
2
10
1.128366
20
-6.227537
0
VERTEX
8
2
10
1.121200
20
-6.228260
0
VERTEX
8
2
10
1.042320
20
-6.228260
0
VERTEX
8
2
10
1.035154
20
-6.227537
0
VERTEX
8
2
10
1.028480
20
-6.225465
0
VERTEX
8
2
10
1.022439
20
-6.222186
0
VERTEX
8
2
10
1.017176
20
-6.217844
0
VERTEX
8
2
10
1.012834
20
-6.212581
0
VERTEX
8
2
10
1.009555
20
-6.206540
0
VERTEX
8
2
10
1.007483
20
-6.199866
0
VERTEX
8
2
10
1.006760
20
-6.192700
0
VERTEX
8
2
10
1.006760
20
-6.063820
0
VERTEX
8
2
10
1.007483
20
-6.056654
0
VERTEX
8
2
10
1.009555
20
-6.049980
0
VERTEX
8
2
10
1.012834
20
-6.043939
0
VERTEX
8
2
10
1.017176
20
-6.038676
0
VERTEX
8
2
10
1.022439
20
-6.034334
0
VERTEX
8
2
10
1.028480
20
-6.031055
0
VERTEX
8
2
10
1.035154
20
-6.028983
0
VERTEX
8
2
10
1.042320
20
-6.028260
0
SEQEND
8
2
0
INSERT
8
2
2
EPAD
10
1.611120
20
-5.761020
41
0.067001
42
0.067001
0
CIRCLE
8
0
10
1.611120
20
-5.761020
40
0.002540
0
INSERT
8
2
2
EPAD
10
2.189120
20
-5.761020
41
0.067001
42
0.067001
0
CIRCLE
8
0
10
2.189120
20
-5.761020
40
0.002540
0
POLYLINE
8
2
66
1
70
1
40
0
41
0
0
VERTEX
8
2
10
1.430820
20
-5.596028
0
VERTEX
8
2
10
1.505420
20
-5.596028
0
VERTEX
8
2
10
1.507979
20
-5.596286
0
VERTEX
8
2
10
1.510363
20
-5.597026
0
VERTEX
8
2
10
1.512520
20
-5.598197
0
VERTEX
8
2
10
1.514400
20
-5.599748
0
VERTEX
8
2
10
1.515951
20
-5.601628
0
VERTEX
8
2
10
1.517122
20
-5.603785
0
VERTEX
8
2
10
1.517862
20
-5.606169
0
VERTEX
8
2
10
1.518120
20
-5.608728
0
VERTEX
8
2
10
1.518120
20
-5.813328
0
VERTEX
8
2
10
1.517862
20
-5.815887
0
VERTEX
8
2
10
1.517122
20
-5.818271
0
VERTEX
8
2
10
1.515951
20
-5.820428
0
VERTEX
8
2
10
1.514400
20
-5.822308
0
VERTEX
8
2
10
1.512520
20
-5.823859
0
VERTEX
8
2
10
1.510363
20
-5.825030
0
VERTEX
8
2
10
1.507979
20
-5.825770
0
VERTEX
8
2
10
1.505420
20
-5.826028
0
VERTEX
8
2
10
1.430820
20
-5.826028
0
VERTEX
8
2
10
1.428261
20
-5.825770
0
VERTEX
8
2
10
1.425877
20
-5.825030
0
VERTEX
8
2
10
1.423720
20
-5.823859
0
VERTEX
8
2
10
1.421840
20
-5.822308
0
VERTEX
8
2
10
1.420289
20
-5.820428
0
VERTEX
8
2
10
1.419118
20
-5.818271
0
VERTEX
8
2
10
1.418378
20
-5.815887
0
VERTEX
8
2
10
1.418120
20
-5.813328
0
VERTEX
8
2
10
1.418120
20
-5.608728
0
VERTEX
8
2
10
1.418378
20
-5.606169
0
VERTEX
8
2
10
1.419118
20
-5.603785
0
VERTEX
8
2
10
1.420289
20
-5.601628
0
VERTEX
8
2
10
1.421840
20
-5.599748
0
VERTEX
8
2
10
1.423720
20
-5.598197
0
VERTEX
8
2
10
1.425877
20
-5.597026
0
VERTEX
8
2
10
1.428261
20
-5.596286
0
VERTEX
8
2
10
1.430820
20
-5.596028
0
SEQEND
8
2
0
POLYLINE
8
2
66
1
70
1
40
0
41
0
0
VERTEX
8
2
10
2.294820
20
-5.596028
0
VERTEX
8
2
10
2.369420
20
-5.596028
0
VERTEX
8
2
10
2.371979
20
-5.596286
0
VERTEX
8
2
10
2.374363
20
-5.597026
0
VERTEX
8
2
10
2.376520
20
-5.598197
0
VERTEX
8
2
10
2.378400
20
-5.599748
0
VERTEX
8
2
10
2.379951
20
-5.601628
0
VERTEX
8
2
10
2.381122
20
-5.603785
0
VERTEX
8
2
10
2.381862
20
-5.606169
0
VERTEX
8
2
10
2.382120
20
-5.608728
0
VERTEX
8
2
10
2.382120
20
-5.813328
0
VERTEX
8
2
10
2.381862
20
-5.815887
0
VERTEX
8
2
10
2.381122
20
-5.818271
0
VERTEX
8
2
10
2.379951
20
-5.820428
0
VERTEX
8
2
10
2.378400
20
-5.822308
0
VERTEX
8
2
10
2.376520
20
-5.823859
0
VERTEX
8
2
10
2.374363
20
-5.825030
0
VERTEX
8
2
10
2.371979
20
-5.825770
0
VERTEX
8
2
10
2.369420
20
-5.826028
0
VERTEX
8
2
10
2.294820
20
-5.826028
0
VERTEX
8
2
10
2.292261
20
-5.825770
0
VERTEX
8
2
10
2.289877
20
-5.825030
0
VERTEX
8
2
10
2.287720
20
-5.823859
0
VERTEX
8
2
10
2.285840
20
-5.822308
0
VERTEX
8
2
10
2.284289
20
-5.820428
0
VERTEX
8
2
10
2.283118
20
-5.818271
0
VERTEX
8
2
10
2.282378
20
-5.815887
0
VERTEX
8
2
10
2.282120
20
-5.813328
0
VERTEX
8
2
10
2.282120
20
-5.608728
0
VERTEX
8
2
10
2.282378
20
-5.606169
0
VERTEX
8
2
10
2.283118
20
-5.603785
0
VERTEX
8
2
10
2.284289
20
-5.601628
0
VERTEX
8
2
10
2.285840
20
-5.599748
0
VERTEX
8
2
10
2.287720
20
-5.598197
0
VERTEX
8
2
10
2.289877
20
-5.597026
0
VERTEX
8
2
10
2.292261
20
-5.596286
0
VERTEX
8
2
10
2.294820
20
-5.596028
0
SEQEND
8
2
0
POLYLINE
8
2
66
1
70
1
40
0
41
0
0
VERTEX
8
2
10
1.428680
20
-6.029020
0
VERTEX
8
2
10
1.507560
20
-6.029020
0
VERTEX
8
2
10
1.514726
20
-6.029743
0
VERTEX
8
2
10
1.521400
20
-6.031815
0
VERTEX
8
2
10
1.527441
20
-6.035094
0
VERTEX
8
2
10
1.532704
20
-6.039436
0
VERTEX
8
2
10
1.537046
20
-6.044699
0
VERTEX
8
2
10
1.540325
20
-6.050740
0
VERTEX
8
2
10
1.542397
20
-6.057414
0
VERTEX
8
2
10
1.543120
20
-6.064580
0
VERTEX
8
2
10
1.543120
20
-6.193460
0
VERTEX
8
2
10
1.542397
20
-6.200626
0
VERTEX
8
2
10
1.540325
20
-6.207300
0
VERTEX
8
2
10
1.537046
20
-6.213341
0
VERTEX
8
2
10
1.532704
20
-6.218604
0
VERTEX
8
2
10
1.527441
20
-6.222946
0
VERTEX
8
2
10
1.521400
20
-6.226225
0
VERTEX
8
2
10
1.514726
20
-6.228297
0
VERTEX
8
2
10
1.507560
20
-6.229020
0
VERTEX
8
2
10
1.428680
20
-6.229020
0
VERTEX
8
2
10
1.421514
20
-6.228297
0
VERTEX
8
2
10
1.414840
20
-6.226225
0
VERTEX
8
2
10
1.408799
20
-6.222946
0
VERTEX
8
2
10
1.403536
20
-6.218604
0
VERTEX
8
2
10
1.399194
20
-6.213341
0
VERTEX
8
2
10
1.395915
20
-6.207300
0
VERTEX
8
2
10
1.393843
20
-6.200626
0
VERTEX
8
2
10
1.393120
20
-6.193460
0
VERTEX
8
2
10
1.393120
20
-6.064580
0
VERTEX
8
2
10
1.393843
20
-6.057414
0
VERTEX
8
2
10
1.395915
20
-6.050740
0
VERTEX
8
2
10
1.399194
20
-6.044699
0
VERTEX
8
2
10
1.403536
20
-6.039436
0
VERTEX
8
2
10
1.408799
20
-6.035094
0
VERTEX
8
2
10
1.414840
20
-6.031815
0
VERTEX
8
2
10
1.421514
20
-6.029743
0
VERTEX
8
2
10
1.428680
20
-6.029020
0
SEQEND
8
2
0
POLYLINE
8
2
66
1
70
1
40
0
41
0
0
VERTEX
8
2
10
2.292680
20
-6.029020
0
VERTEX
8
2
10
2.371560
20
-6.029020
0
VERTEX
8
2
10
2.378726
20
-6.029743
0
VERTEX
8
2
10
2.385400
20
-6.031815
0
VERTEX
8
2
10
2.391441
20
-6.035094
0
VERTEX
8
2
10
2.396704
20
-6.039436
0
VERTEX
8
2
10
2.401046
20
-6.044699
0
VERTEX
8
2
10
2.404325
20
-6.050740
0
VERTEX
8
2
10
2.406397
20
-6.057414
0
VERTEX
8
2
10
2.407120
20
-6.064580
0
VERTEX
8
2
10
2.407120
20
-6.193460
0
VERTEX
8
2
10
2.406397
20
-6.200626
0
VERTEX
8
2
10
2.404325
20
-6.207300
0
VERTEX
8
2
10
2.401046
20
-6.213341
0
VERTEX
8
2
10
2.396704
20
-6.218604
0
VERTEX
8
2
10
2.391441
20
-6.222946
0
VERTEX
8
2
10
2.385400
20
-6.226225
0
VERTEX
8
2
10
2.378726
20
-6.228297
0
VERTEX
8
2
10
2.371560
20
-6.229020
0
VERTEX
8
2
10
2.292680
20
-6.229020
0
VERTEX
8
2
10
2.285514
20
-6.228297
0
VERTEX
8
2
10
2.278840
20
-6.226225
0
VERTEX
8
2
10
2.272799
20
-6.222946
0
VERTEX
8
2
10
2.267536
20
-6.218604
0
VERTEX
8
2
10
2.263194
20
-6.213341
0
VERTEX
8
2
10
2.259915
20
-6.207300
0
VERTEX
8
2
10
2.257843
20
-6.200626
0
VERTEX
8
2
10
2.257120
20
-6.193460
0
VERTEX
8
2
10
2.257120
20
-6.064580
0
VERTEX
8
2
10
2.257843
20
-6.057414
0
VERTEX
8
2
10
2.259915
20
-6.050740
0
VERTEX
8
2
10
2.263194
20
-6.044699
0
VERTEX
8
2
10
2.267536
20
-6.039436
0
VERTEX
8
2
10
2.272799
20
-6.035094
0
VERTEX
8
2
10
2.278840
20
-6.031815
0
VERTEX
8
2
10
2.285514
20
-6.029743
0
VERTEX
8
2
10
2.292680
20
-6.029020
0
SEQEND
8
2
0
POLYLINE
8
3
66
1
40
0.020320
41
0.020320
0
VERTEX
8
3
10
0.000000
20
-6.273800
0
VERTEX
8
3
10
2.540000
20
-6.273800
0
VERTEX
8
3
10
2.540000
20
0.000000
0
VERTEX
8
3
10
0.000000
20
0.000000
0
VERTEX
8
3
10
0.000000
20
-6.273800
0
SEQEND
8
3
0
ENDSEC
0
EOF

