  0
SECTION
  2
HEADER
  9
$ACADVER
  1
AC1009
  9
$INSUNITS
 70
     1
  0
ENDSEC
  0
SECTION
  2
TABLES
  0
TABLE
  2
LAYER
 70
     8
  0
LAYER
  2
0
 62
     7
 70
0
  6
CONTINUOUS
  0
LAYER
  2
1
 62
     1
 70
0
  6
CONTINUOUS
  0
LAYER
  2
2
 62
     2
 70
0
  6
CONTINUOUS
  0
LAYER
  2
3
 62
     3
 70
0
  6
CONTINUOUS
  0
LAYER
  2
4
 62
     4
 70
0
  6
CONTINUOUS
  0
LAYER
  2
5
 62
     5
 70
0
  6
CONTINUOUS
  0
LAYER
  2
6
 62
     6
 70
0
  6
CONTINUOUS
  0
LAYER
  2
7
 62
     7
 70
0
  6
CONTINUOUS
  0
ENDTAB
  0
TABLE
  2
STYLE
 70
     1
  0
STYLE
 70
     0
  2
STANDARD
  3
TXT
 40
0.00
 41
1.00
 42
1.00
 50
0.00
 71
     0
  0
ENDTAB
  0
ENDSEC
  0
SECTION
  2
BLOCKS
  0
BLOCK
  8
0
  2
EPAD
 70
0
 10
0.0
 20
0.0
  0
POLYLINE
  8
0
 66
1
 70
1
 40
0.5
 41
0.5
  0
VERTEX
  8
0
 10
-0.25
 20
0.0
 42
1.0
  0
VERTEX
  8
0
 10
0.25
 20
0.0
 42
1.0
  0
SEQEND
  8
0
  0
ENDBLK
  8
0
  0
BLOCK
  8
0
  2
RPAD
 70
0
 10
0.0
 20
0.0
  0
TRACE
  8
0
 10
-0.5
 20
-0.5
 11
-0.5
 21
0.5
 12
0.5
 22
-0.5
 13
0.5
 23
0.5
  0
ENDBLK
  8
0
  0
ENDSEC
0
SECTION
2
ENTITIES
0
INSERT
8
0
2
EPAD
10
0.030773
20
0.102428
41
0.019685
42
0.019685
0
CIRCLE
8
0
10
0.030773
20
0.102428
40
0.006000
0
INSERT
8
0
2
EPAD
10
0.010225
20
0.018613
41
0.019685
42
0.019685
0
CIRCLE
8
0
10
0.010225
20
0.018613
40
0.006000
0
INSERT
8
0
2
EPAD
10
-0.097893
20
0.053385
41
0.019685
42
0.019685
0
CIRCLE
8
0
10
-0.097893
20
0.053385
40
0.006000
0
INSERT
8
0
2
EPAD
10
-0.004580
20
-0.003574
41
0.019685
42
0.019685
0
CIRCLE
8
0
10
-0.004580
20
-0.003574
40
0.006000
0
INSERT
8
0
2
EPAD
10
0.074773
20
0.082780
41
0.019685
42
0.019685
0
CIRCLE
8
0
10
0.074773
20
0.082780
40
0.006000
0
INSERT
8
0
2
EPAD
10
-0.104632
20
-0.057951
41
0.019685
42
0.019685
0
CIRCLE
8
0
10
-0.104632
20
-0.057951
40
0.006000
0
INSERT
8
0
2
EPAD
10
0.085402
20
-0.100241
41
0.019685
42
0.019685
0
CIRCLE
8
0
10
0.085402
20
-0.100241
40
0.006000
0
POLYLINE
8
0
66
1
40
0.008000
41
0.008000
0
VERTEX
8
0
10
-0.126447
20
-0.137811
0
VERTEX
8
0
10
0.129458
20
-0.137811
0
VERTEX
8
0
10
0.129458
20
0.137780
0
VERTEX
8
0
10
-0.126447
20
0.137780
0
VERTEX
8
0
10
-0.126447
20
-0.137811
0
SEQEND
8
0
0
ENDSEC
0
EOF

