  0
SECTION
  2
HEADER
  9
$ACADVER
  1
AC1009
  9
$INSUNITS
 70
     5
 9
$MEASUREMENT
 70
    1
  0
ENDSEC
  0
SECTION
  2
TABLES
  0
TABLE
  2
LAYER
 70
     8
  0
LAYER
  2
0
 62
     7
 70
0
  6
CONTINUOUS
  0
LAYER
  2
1
 62
     1
 70
0
  6
CONTINUOUS
  0
LAYER
  2
2
 62
     2
 70
0
  6
CONTINUOUS
  0
LAYER
  2
3
 62
     3
 70
0
  6
CONTINUOUS
  0
LAYER
  2
4
 62
     4
 70
0
  6
CONTINUOUS
  0
LAYER
  2
5
 62
     5
 70
0
  6
CONTINUOUS
  0
LAYER
  2
6
 62
     6
 70
0
  6
CONTINUOUS
  0
LAYER
  2
7
 62
     7
 70
0
  6
CONTINUOUS
  0
ENDTAB
  0
TABLE
  2
STYLE
 70
     1
  0
STYLE
 70
     0
  2
STANDARD
  3
TXT
 40
0.00
 41
1.00
 42
1.00
 50
0.00
 71
     0
  0
ENDTAB
  0
ENDSEC
  0
SECTION
  2
BLOCKS
  0
BLOCK
  8
0
  2
EPAD
 70
0
 10
0.0
 20
0.0
  0
POLYLINE
  8
0
 66
1
 70
1
 40
0.5
 41
0.5
  0
VERTEX
  8
0
 10
-0.25
 20
0.0
 42
1.0
  0
VERTEX
  8
0
 10
0.25
 20
0.0
 42
1.0
  0
SEQEND
  8
0
  0
ENDBLK
  8
0
  0
BLOCK
  8
0
  2
RPAD
 70
0
 10
0.0
 20
0.0
  0
TRACE
  8
0
 10
-0.5
 20
-0.5
 11
-0.5
 21
0.5
 12
0.5
 22
-0.5
 13
0.5
 23
0.5
  0
ENDBLK
  8
0
  0
ENDSEC
0
SECTION
2
ENTITIES
0
INSERT
8
1
2
EPAD
10
1.468800
20
-2.997900
41
0.075000
42
0.075000
0
INSERT
8
1
2
EPAD
10
1.132800
20
-4.960900
41
0.050000
42
0.050000
0
CIRCLE
8
0
10
1.132800
20
-4.960900
40
0.025400
0
INSERT
8
1
2
EPAD
10
0.135945
20
-5.326587
41
0.050000
42
0.050000
0
CIRCLE
8
0
10
0.135945
20
-5.326587
40
0.025400
0
INSERT
8
1
2
EPAD
10
2.004400
20
-6.178251
41
0.050000
42
0.050000
0
CIRCLE
8
0
10
2.004400
20
-6.178251
40
0.025400
0
INSERT
8
1
2
EPAD
10
1.244600
20
-6.324600
41
0.050000
42
0.050000
0
CIRCLE
8
0
10
1.244600
20
-6.324600
40
0.025400
0
INSERT
8
1
2
EPAD
10
0.880377
20
-4.717762
41
0.050000
42
0.050000
0
CIRCLE
8
0
10
0.880377
20
-4.717762
40
0.025400
0
INSERT
8
1
2
EPAD
10
1.995978
20
-3.665756
41
0.050000
42
0.050000
0
CIRCLE
8
0
10
1.995978
20
-3.665756
40
0.025400
0
INSERT
8
1
2
EPAD
10
3.345537
20
-5.358994
41
0.050000
42
0.050000
0
CIRCLE
8
0
10
3.345537
20
-5.358994
40
0.025400
0
INSERT
8
1
2
EPAD
10
4.500230
20
-5.742727
41
0.050000
42
0.050000
0
CIRCLE
8
0
10
4.500230
20
-5.742727
40
0.025400
0
INSERT
8
1
2
EPAD
10
2.405448
20
-4.855926
41
0.050000
42
0.050000
0
CIRCLE
8
0
10
2.405448
20
-4.855926
40
0.025400
0
INSERT
8
1
2
EPAD
10
3.982432
20
-4.674126
41
0.050000
42
0.050000
0
CIRCLE
8
0
10
3.982432
20
-4.674126
40
0.025400
0
INSERT
8
1
2
EPAD
10
4.507925
20
-5.275761
41
0.050000
42
0.050000
0
CIRCLE
8
0
10
4.507925
20
-5.275761
40
0.025400
0
INSERT
8
1
2
EPAD
10
4.200580
20
-4.743443
41
0.050000
42
0.050000
0
CIRCLE
8
0
10
4.200580
20
-4.743443
40
0.025400
0
INSERT
8
1
2
EPAD
10
3.761700
20
-4.960900
41
0.050000
42
0.050000
0
CIRCLE
8
0
10
3.761700
20
-4.960900
40
0.025400
0
INSERT
8
1
2
EPAD
10
3.079200
20
-4.350900
41
0.050000
42
0.050000
0
CIRCLE
8
0
10
3.079200
20
-4.350900
40
0.025400
0
INSERT
8
1
2
EPAD
10
0.658183
20
-4.923287
41
0.050000
42
0.050000
0
CIRCLE
8
0
10
0.658183
20
-4.923287
40
0.025400
0
INSERT
8
1
2
EPAD
10
0.200000
20
-3.802947
41
0.050000
42
0.050000
0
CIRCLE
8
0
10
0.200000
20
-3.802947
40
0.025400
0
INSERT
8
1
2
EPAD
10
1.132800
20
-4.885900
41
0.050000
42
0.050000
0
CIRCLE
8
0
10
1.132800
20
-4.885900
40
0.025400
0
INSERT
8
1
2
EPAD
10
1.132800
20
-5.035900
41
0.050000
42
0.050000
0
CIRCLE
8
0
10
1.132800
20
-5.035900
40
0.025400
0
INSERT
8
1
2
EPAD
10
1.060439
20
-4.961512
41
0.050000
42
0.050000
0
CIRCLE
8
0
10
1.060439
20
-4.961512
40
0.025400
0
INSERT
8
1
2
EPAD
10
1.207800
20
-4.960900
41
0.050000
42
0.050000
0
CIRCLE
8
0
10
1.207800
20
-4.960900
40
0.025400
0
INSERT
8
1
2
EPAD
10
1.258569
20
-4.590757
41
0.050000
42
0.050000
0
CIRCLE
8
0
10
1.258569
20
-4.590757
40
0.025400
0
INSERT
8
1
2
EPAD
10
1.057800
20
-4.885900
41
0.050000
42
0.050000
0
CIRCLE
8
0
10
1.057800
20
-4.885900
40
0.025400
0
INSERT
8
1
2
EPAD
10
1.206778
20
-4.886513
41
0.050000
42
0.050000
0
CIRCLE
8
0
10
1.206778
20
-4.886513
40
0.025400
0
INSERT
8
1
2
EPAD
10
1.057800
20
-5.035900
41
0.050000
42
0.050000
0
CIRCLE
8
0
10
1.057800
20
-5.035900
40
0.025400
0
INSERT
8
1
2
EPAD
10
1.207800
20
-5.035900
41
0.050000
42
0.050000
0
CIRCLE
8
0
10
1.207800
20
-5.035900
40
0.025400
0
INSERT
8
1
2
EPAD
10
3.761700
20
-4.885900
41
0.050000
42
0.050000
0
CIRCLE
8
0
10
3.761700
20
-4.885900
40
0.025400
0
INSERT
8
1
2
EPAD
10
3.686700
20
-4.885900
41
0.050000
42
0.050000
0
CIRCLE
8
0
10
3.686700
20
-4.885900
40
0.025400
0
INSERT
8
1
2
EPAD
10
3.686700
20
-4.960900
41
0.050000
42
0.050000
0
CIRCLE
8
0
10
3.686700
20
-4.960900
40
0.025400
0
INSERT
8
1
2
EPAD
10
3.686700
20
-5.035900
41
0.050000
42
0.050000
0
CIRCLE
8
0
10
3.686700
20
-5.035900
40
0.025400
0
INSERT
8
1
2
EPAD
10
3.761700
20
-5.035900
41
0.050000
42
0.050000
0
CIRCLE
8
0
10
3.761700
20
-5.035900
40
0.025400
0
INSERT
8
1
2
EPAD
10
3.836700
20
-5.035900
41
0.050000
42
0.050000
0
CIRCLE
8
0
10
3.836700
20
-5.035900
40
0.025400
0
INSERT
8
1
2
EPAD
10
3.836700
20
-4.960900
41
0.050000
42
0.050000
0
CIRCLE
8
0
10
3.836700
20
-4.960900
40
0.025400
0
INSERT
8
1
2
EPAD
10
3.836700
20
-4.885900
41
0.050000
42
0.050000
0
CIRCLE
8
0
10
3.836700
20
-4.885900
40
0.025400
0
INSERT
8
1
2
EPAD
10
2.986700
20
-5.410900
41
0.050000
42
0.050000
0
CIRCLE
8
0
10
2.986700
20
-5.410900
40
0.025400
0
INSERT
8
1
2
EPAD
10
2.936700
20
-5.410900
41
0.050000
42
0.050000
0
CIRCLE
8
0
10
2.936700
20
-5.410900
40
0.025400
0
INSERT
8
1
2
EPAD
10
1.250000
20
-0.350000
41
0.075000
42
0.075000
0
INSERT
8
1
2
EPAD
10
1.350000
20
-0.350000
41
0.075000
42
0.075000
0
INSERT
8
1
2
EPAD
10
1.150000
20
-0.350000
41
0.075000
42
0.075000
0
INSERT
8
1
2
EPAD
10
1.150000
20
-0.250000
41
0.075000
42
0.075000
0
INSERT
8
1
2
EPAD
10
1.250000
20
-0.250000
41
0.075000
42
0.075000
0
INSERT
8
1
2
EPAD
10
1.350000
20
-0.250000
41
0.075000
42
0.075000
0
INSERT
8
1
2
EPAD
10
1.250000
20
-0.750000
41
0.075000
42
0.075000
0
INSERT
8
1
2
EPAD
10
1.350000
20
-0.750000
41
0.075000
42
0.075000
0
INSERT
8
1
2
EPAD
10
1.150000
20
-0.750000
41
0.075000
42
0.075000
0
INSERT
8
1
2
EPAD
10
1.150000
20
-0.850000
41
0.075000
42
0.075000
0
INSERT
8
1
2
EPAD
10
1.250000
20
-0.850000
41
0.075000
42
0.075000
0
INSERT
8
1
2
EPAD
10
1.350000
20
-0.850000
41
0.075000
42
0.075000
0
INSERT
8
1
2
EPAD
10
0.778200
20
-2.997900
41
0.075000
42
0.075000
0
INSERT
8
1
2
EPAD
10
0.878200
20
-2.997900
41
0.075000
42
0.075000
0
INSERT
8
1
2
EPAD
10
0.678200
20
-2.897900
41
0.075000
42
0.075000
0
INSERT
8
1
2
EPAD
10
0.778200
20
-2.897900
41
0.075000
42
0.075000
0
INSERT
8
1
2
EPAD
10
0.878200
20
-2.897900
41
0.075000
42
0.075000
0
INSERT
8
1
2
EPAD
10
0.578200
20
-2.897900
41
0.075000
42
0.075000
0
INSERT
8
1
2
EPAD
10
0.478200
20
-2.897900
41
0.075000
42
0.075000
0
INSERT
8
1
2
EPAD
10
0.478200
20
-2.797900
41
0.075000
42
0.075000
0
INSERT
8
1
2
EPAD
10
0.578200
20
-2.797900
41
0.075000
42
0.075000
0
INSERT
8
1
2
EPAD
10
0.678200
20
-2.797900
41
0.075000
42
0.075000
0
INSERT
8
1
2
EPAD
10
0.778200
20
-2.797900
41
0.075000
42
0.075000
0
INSERT
8
1
2
EPAD
10
0.878200
20
-2.797900
41
0.075000
42
0.075000
0
INSERT
8
1
2
EPAD
10
0.678200
20
-3.097900
41
0.075000
42
0.075000
0
INSERT
8
1
2
EPAD
10
0.778200
20
-3.097900
41
0.075000
42
0.075000
0
INSERT
8
1
2
EPAD
10
0.878200
20
-3.097900
41
0.075000
42
0.075000
0
INSERT
8
1
2
EPAD
10
0.578200
20
-3.097900
41
0.075000
42
0.075000
0
INSERT
8
1
2
EPAD
10
0.478200
20
-3.097900
41
0.075000
42
0.075000
0
INSERT
8
1
2
EPAD
10
0.478200
20
-3.197900
41
0.075000
42
0.075000
0
INSERT
8
1
2
EPAD
10
0.578200
20
-3.197900
41
0.075000
42
0.075000
0
INSERT
8
1
2
EPAD
10
0.678200
20
-3.197900
41
0.075000
42
0.075000
0
INSERT
8
1
2
EPAD
10
0.778200
20
-3.197900
41
0.075000
42
0.075000
0
INSERT
8
1
2
EPAD
10
0.878200
20
-3.197900
41
0.075000
42
0.075000
0
INSERT
8
1
2
EPAD
10
1.568800
20
-2.997900
41
0.075000
42
0.075000
0
INSERT
8
1
2
EPAD
10
1.668800
20
-2.997900
41
0.075000
42
0.075000
0
INSERT
8
1
2
EPAD
10
1.368800
20
-2.997900
41
0.075000
42
0.075000
0
INSERT
8
1
2
EPAD
10
1.268800
20
-2.997900
41
0.075000
42
0.075000
0
INSERT
8
1
2
EPAD
10
1.268800
20
-2.897900
41
0.075000
42
0.075000
0
INSERT
8
1
2
EPAD
10
1.368800
20
-2.897900
41
0.075000
42
0.075000
0
INSERT
8
1
2
EPAD
10
1.468800
20
-2.897900
41
0.075000
42
0.075000
0
INSERT
8
1
2
EPAD
10
1.568800
20
-2.897900
41
0.075000
42
0.075000
0
INSERT
8
1
2
EPAD
10
1.668800
20
-2.897900
41
0.075000
42
0.075000
0
INSERT
8
1
2
EPAD
10
1.568800
20
-2.797900
41
0.075000
42
0.075000
0
INSERT
8
1
2
EPAD
10
1.468800
20
-2.797900
41
0.075000
42
0.075000
0
INSERT
8
1
2
EPAD
10
1.368800
20
-2.797900
41
0.075000
42
0.075000
0
INSERT
8
1
2
EPAD
10
1.268800
20
-2.797900
41
0.075000
42
0.075000
0
INSERT
8
1
2
EPAD
10
1.268800
20
-3.097900
41
0.075000
42
0.075000
0
INSERT
8
1
2
EPAD
10
1.368800
20
-3.097900
41
0.075000
42
0.075000
0
INSERT
8
1
2
EPAD
10
1.468800
20
-3.097900
41
0.075000
42
0.075000
0
INSERT
8
1
2
EPAD
10
1.568800
20
-3.097900
41
0.075000
42
0.075000
0
INSERT
8
1
2
EPAD
10
1.668800
20
-3.097900
41
0.075000
42
0.075000
0
INSERT
8
1
2
EPAD
10
1.668800
20
-3.197900
41
0.075000
42
0.075000
0
INSERT
8
1
2
EPAD
10
1.568800
20
-3.197900
41
0.075000
42
0.075000
0
INSERT
8
1
2
EPAD
10
0.678200
20
-2.997900
41
0.075000
42
0.075000
0
INSERT
8
1
2
EPAD
10
0.568800
20
-2.997900
41
0.075000
42
0.075000
0
INSERT
8
1
2
EPAD
10
3.568800
20
-2.997900
41
0.075000
42
0.075000
0
INSERT
8
1
2
EPAD
10
3.668800
20
-2.997900
41
0.075000
42
0.075000
0
INSERT
8
1
2
EPAD
10
3.668800
20
-3.097900
41
0.075000
42
0.075000
0
INSERT
8
1
2
EPAD
10
3.568800
20
-3.097900
41
0.075000
42
0.075000
0
INSERT
8
1
2
EPAD
10
3.668800
20
-2.897900
41
0.075000
42
0.075000
0
INSERT
8
1
2
EPAD
10
3.568800
20
-2.897900
41
0.075000
42
0.075000
0
INSERT
8
1
2
EPAD
10
3.268800
20
-2.897900
41
0.075000
42
0.075000
0
INSERT
8
1
2
EPAD
10
3.268800
20
-2.997900
41
0.075000
42
0.075000
0
INSERT
8
1
2
EPAD
10
3.368800
20
-2.997900
41
0.075000
42
0.075000
0
INSERT
8
1
2
EPAD
10
3.368800
20
-3.097900
41
0.075000
42
0.075000
0
INSERT
8
1
2
EPAD
10
3.268800
20
-3.097900
41
0.075000
42
0.075000
0
INSERT
8
1
2
EPAD
10
3.268800
20
-2.797900
41
0.075000
42
0.075000
0
INSERT
8
1
2
EPAD
10
3.368800
20
-2.797900
41
0.075000
42
0.075000
0
INSERT
8
1
2
EPAD
10
3.568800
20
-2.797900
41
0.075000
42
0.075000
0
INSERT
8
1
2
EPAD
10
3.668800
20
-2.797900
41
0.075000
42
0.075000
0
INSERT
8
1
2
EPAD
10
3.368800
20
-2.897900
41
0.075000
42
0.075000
0
INSERT
8
1
2
EPAD
10
3.468800
20
-2.997900
41
0.075000
42
0.075000
0
INSERT
8
1
2
EPAD
10
3.268800
20
-3.197900
41
0.075000
42
0.075000
0
INSERT
8
1
2
EPAD
10
3.368800
20
-3.197900
41
0.075000
42
0.075000
0
INSERT
8
1
2
EPAD
10
3.468800
20
-3.197900
41
0.075000
42
0.075000
0
INSERT
8
1
2
EPAD
10
3.568800
20
-3.197900
41
0.075000
42
0.075000
0
INSERT
8
1
2
EPAD
10
3.668800
20
-3.197900
41
0.075000
42
0.075000
0
INSERT
8
1
2
EPAD
10
3.468800
20
-2.897900
41
0.075000
42
0.075000
0
INSERT
8
1
2
EPAD
10
3.468800
20
-2.797900
41
0.075000
42
0.075000
0
INSERT
8
1
2
EPAD
10
4.177379
20
-2.981072
41
0.075000
42
0.075000
0
INSERT
8
1
2
EPAD
10
4.077379
20
-2.981072
41
0.075000
42
0.075000
0
INSERT
8
1
2
EPAD
10
4.077379
20
-2.881072
41
0.075000
42
0.075000
0
INSERT
8
1
2
EPAD
10
4.177379
20
-2.881072
41
0.075000
42
0.075000
0
INSERT
8
1
2
EPAD
10
4.177379
20
-2.781072
41
0.075000
42
0.075000
0
INSERT
8
1
2
EPAD
10
4.077379
20
-2.781072
41
0.075000
42
0.075000
0
INSERT
8
1
2
EPAD
10
4.077379
20
-3.081072
41
0.075000
42
0.075000
0
INSERT
8
1
2
EPAD
10
4.177379
20
-3.081072
41
0.075000
42
0.075000
0
INSERT
8
1
2
EPAD
10
4.277379
20
-3.081072
41
0.075000
42
0.075000
0
INSERT
8
1
2
EPAD
10
4.377379
20
-2.881072
41
0.075000
42
0.075000
0
INSERT
8
1
2
EPAD
10
4.377379
20
-2.781072
41
0.075000
42
0.075000
0
INSERT
8
1
2
EPAD
10
4.477379
20
-2.781072
41
0.075000
42
0.075000
0
INSERT
8
1
2
EPAD
10
4.477379
20
-2.881072
41
0.075000
42
0.075000
0
INSERT
8
1
2
EPAD
10
4.377379
20
-3.081072
41
0.075000
42
0.075000
0
INSERT
8
1
2
EPAD
10
4.477379
20
-3.081072
41
0.075000
42
0.075000
0
INSERT
8
1
2
EPAD
10
4.476992
20
-2.976873
41
0.075000
42
0.075000
0
INSERT
8
1
2
EPAD
10
4.379047
20
-2.976486
41
0.075000
42
0.075000
0
INSERT
8
1
2
EPAD
10
4.077379
20
-3.181072
41
0.075000
42
0.075000
0
INSERT
8
1
2
EPAD
10
4.177379
20
-3.181072
41
0.075000
42
0.075000
0
INSERT
8
1
2
EPAD
10
4.277379
20
-3.181072
41
0.075000
42
0.075000
0
INSERT
8
1
2
EPAD
10
4.377379
20
-3.181072
41
0.075000
42
0.075000
0
INSERT
8
1
2
EPAD
10
4.477379
20
-3.181072
41
0.075000
42
0.075000
0
INSERT
8
1
2
EPAD
10
2.348855
20
-6.093316
41
0.050000
42
0.050000
0
CIRCLE
8
0
10
2.348855
20
-6.093316
40
0.025400
0
INSERT
8
1
2
EPAD
10
2.651790
20
-6.099540
41
0.050000
42
0.050000
0
CIRCLE
8
0
10
2.651790
20
-6.099540
40
0.025400
0
INSERT
8
1
2
EPAD
10
1.668800
20
-2.797900
41
0.075000
42
0.075000
0
INSERT
8
1
2
EPAD
10
1.600000
20
-2.250000
41
0.050000
42
0.050000
0
CIRCLE
8
0
10
1.600000
20
-2.250000
40
0.025400
0
INSERT
8
1
2
EPAD
10
1.600000
20
-2.300000
41
0.050000
42
0.050000
0
CIRCLE
8
0
10
1.600000
20
-2.300000
40
0.025400
0
INSERT
8
1
2
EPAD
10
1.600000
20
-2.350000
41
0.050000
42
0.050000
0
CIRCLE
8
0
10
1.600000
20
-2.350000
40
0.025400
0
INSERT
8
1
2
EPAD
10
1.600000
20
-2.400000
41
0.050000
42
0.050000
0
CIRCLE
8
0
10
1.600000
20
-2.400000
40
0.025400
0
INSERT
8
1
2
EPAD
10
1.550000
20
-2.400000
41
0.050000
42
0.050000
0
CIRCLE
8
0
10
1.550000
20
-2.400000
40
0.025400
0
INSERT
8
1
2
EPAD
10
1.550000
20
-2.250000
41
0.050000
42
0.050000
0
CIRCLE
8
0
10
1.550000
20
-2.250000
40
0.025400
0
INSERT
8
1
2
EPAD
10
1.550000
20
-2.300000
41
0.050000
42
0.050000
0
CIRCLE
8
0
10
1.550000
20
-2.300000
40
0.025400
0
INSERT
8
1
2
EPAD
10
1.550000
20
-2.350000
41
0.050000
42
0.050000
0
CIRCLE
8
0
10
1.550000
20
-2.350000
40
0.025400
0
INSERT
8
1
2
EPAD
10
0.800000
20
-2.250000
41
0.050000
42
0.050000
0
CIRCLE
8
0
10
0.800000
20
-2.250000
40
0.025400
0
INSERT
8
1
2
EPAD
10
0.750000
20
-2.250000
41
0.050000
42
0.050000
0
CIRCLE
8
0
10
0.750000
20
-2.250000
40
0.025400
0
INSERT
8
1
2
EPAD
10
0.750000
20
-2.300000
41
0.050000
42
0.050000
0
CIRCLE
8
0
10
0.750000
20
-2.300000
40
0.025400
0
INSERT
8
1
2
EPAD
10
0.750000
20
-2.350000
41
0.050000
42
0.050000
0
CIRCLE
8
0
10
0.750000
20
-2.350000
40
0.025400
0
INSERT
8
1
2
EPAD
10
0.750000
20
-2.400000
41
0.050000
42
0.050000
0
CIRCLE
8
0
10
0.750000
20
-2.400000
40
0.025400
0
INSERT
8
1
2
EPAD
10
0.800000
20
-2.300000
41
0.050000
42
0.050000
0
CIRCLE
8
0
10
0.800000
20
-2.300000
40
0.025400
0
INSERT
8
1
2
EPAD
10
0.800000
20
-2.350000
41
0.050000
42
0.050000
0
CIRCLE
8
0
10
0.800000
20
-2.350000
40
0.025400
0
INSERT
8
1
2
EPAD
10
0.800417
20
-2.402015
41
0.050000
42
0.050000
0
CIRCLE
8
0
10
0.800417
20
-2.402015
40
0.025400
0
INSERT
8
1
2
EPAD
10
3.600000
20
-2.250000
41
0.050000
42
0.050000
0
CIRCLE
8
0
10
3.600000
20
-2.250000
40
0.025400
0
INSERT
8
1
2
EPAD
10
3.550000
20
-2.250000
41
0.050000
42
0.050000
0
CIRCLE
8
0
10
3.550000
20
-2.250000
40
0.025400
0
INSERT
8
1
2
EPAD
10
3.550000
20
-2.300000
41
0.050000
42
0.050000
0
CIRCLE
8
0
10
3.550000
20
-2.300000
40
0.025400
0
INSERT
8
1
2
EPAD
10
3.600000
20
-2.300000
41
0.050000
42
0.050000
0
CIRCLE
8
0
10
3.600000
20
-2.300000
40
0.025400
0
INSERT
8
1
2
EPAD
10
3.550000
20
-2.350000
41
0.050000
42
0.050000
0
CIRCLE
8
0
10
3.550000
20
-2.350000
40
0.025400
0
INSERT
8
1
2
EPAD
10
3.600000
20
-2.350000
41
0.050000
42
0.050000
0
CIRCLE
8
0
10
3.600000
20
-2.350000
40
0.025400
0
INSERT
8
1
2
EPAD
10
3.600000
20
-2.400000
41
0.050000
42
0.050000
0
CIRCLE
8
0
10
3.600000
20
-2.400000
40
0.025400
0
INSERT
8
1
2
EPAD
10
3.550000
20
-2.400000
41
0.050000
42
0.050000
0
CIRCLE
8
0
10
3.550000
20
-2.400000
40
0.025400
0
INSERT
8
1
2
EPAD
10
4.400000
20
-2.250000
41
0.050000
42
0.050000
0
CIRCLE
8
0
10
4.400000
20
-2.250000
40
0.025400
0
INSERT
8
1
2
EPAD
10
4.350000
20
-2.250000
41
0.050000
42
0.050000
0
CIRCLE
8
0
10
4.350000
20
-2.250000
40
0.025400
0
INSERT
8
1
2
EPAD
10
4.350000
20
-2.300000
41
0.050000
42
0.050000
0
CIRCLE
8
0
10
4.350000
20
-2.300000
40
0.025400
0
INSERT
8
1
2
EPAD
10
4.400000
20
-2.300000
41
0.050000
42
0.050000
0
CIRCLE
8
0
10
4.400000
20
-2.300000
40
0.025400
0
INSERT
8
1
2
EPAD
10
4.400000
20
-2.350000
41
0.050000
42
0.050000
0
CIRCLE
8
0
10
4.400000
20
-2.350000
40
0.025400
0
INSERT
8
1
2
EPAD
10
4.350000
20
-2.350000
41
0.050000
42
0.050000
0
CIRCLE
8
0
10
4.350000
20
-2.350000
40
0.025400
0
INSERT
8
1
2
EPAD
10
4.350000
20
-2.400000
41
0.050000
42
0.050000
0
CIRCLE
8
0
10
4.350000
20
-2.400000
40
0.025400
0
INSERT
8
1
2
EPAD
10
4.400000
20
-2.400000
41
0.050000
42
0.050000
0
CIRCLE
8
0
10
4.400000
20
-2.400000
40
0.025400
0
INSERT
8
1
2
EPAD
10
4.277379
20
-2.881072
41
0.075000
42
0.075000
0
INSERT
8
1
2
EPAD
10
4.277379
20
-2.781072
41
0.075000
42
0.075000
0
INSERT
8
1
2
EPAD
10
1.750000
20
-0.350000
41
0.075000
42
0.075000
0
INSERT
8
1
2
EPAD
10
1.850000
20
-0.350000
41
0.075000
42
0.075000
0
INSERT
8
1
2
EPAD
10
1.850000
20
-0.250000
41
0.075000
42
0.075000
0
INSERT
8
1
2
EPAD
10
1.650000
20
-0.350000
41
0.075000
42
0.075000
0
INSERT
8
1
2
EPAD
10
1.650000
20
-0.250000
41
0.075000
42
0.075000
0
INSERT
8
1
2
EPAD
10
1.750000
20
-0.250000
41
0.075000
42
0.075000
0
INSERT
8
1
2
EPAD
10
1.750000
20
-0.750000
41
0.075000
42
0.075000
0
INSERT
8
1
2
EPAD
10
1.850000
20
-0.750000
41
0.075000
42
0.075000
0
INSERT
8
1
2
EPAD
10
1.850000
20
-0.850000
41
0.075000
42
0.075000
0
INSERT
8
1
2
EPAD
10
1.750000
20
-0.850000
41
0.075000
42
0.075000
0
INSERT
8
1
2
EPAD
10
1.650000
20
-0.850000
41
0.075000
42
0.075000
0
INSERT
8
1
2
EPAD
10
1.650000
20
-0.750000
41
0.075000
42
0.075000
0
INSERT
8
1
2
EPAD
10
2.250000
20
-0.350000
41
0.075000
42
0.075000
0
INSERT
8
1
2
EPAD
10
2.350000
20
-0.350000
41
0.075000
42
0.075000
0
INSERT
8
1
2
EPAD
10
2.350000
20
-0.250000
41
0.075000
42
0.075000
0
INSERT
8
1
2
EPAD
10
2.250000
20
-0.250000
41
0.075000
42
0.075000
0
INSERT
8
1
2
EPAD
10
2.150000
20
-0.250000
41
0.075000
42
0.075000
0
INSERT
8
1
2
EPAD
10
2.150000
20
-0.350000
41
0.075000
42
0.075000
0
INSERT
8
1
2
EPAD
10
2.250000
20
-0.750000
41
0.075000
42
0.075000
0
INSERT
8
1
2
EPAD
10
2.350000
20
-0.750000
41
0.075000
42
0.075000
0
INSERT
8
1
2
EPAD
10
2.350000
20
-0.850000
41
0.075000
42
0.075000
0
INSERT
8
1
2
EPAD
10
2.250000
20
-0.850000
41
0.075000
42
0.075000
0
INSERT
8
1
2
EPAD
10
2.150000
20
-0.850000
41
0.075000
42
0.075000
0
INSERT
8
1
2
EPAD
10
2.150000
20
-0.750000
41
0.075000
42
0.075000
0
INSERT
8
1
2
EPAD
10
2.750000
20
-0.750000
41
0.075000
42
0.075000
0
INSERT
8
1
2
EPAD
10
2.850000
20
-0.750000
41
0.075000
42
0.075000
0
INSERT
8
1
2
EPAD
10
2.850000
20
-0.850000
41
0.075000
42
0.075000
0
INSERT
8
1
2
EPAD
10
2.750000
20
-0.850000
41
0.075000
42
0.075000
0
INSERT
8
1
2
EPAD
10
2.650000
20
-0.850000
41
0.075000
42
0.075000
0
INSERT
8
1
2
EPAD
10
2.650000
20
-0.750000
41
0.075000
42
0.075000
0
INSERT
8
1
2
EPAD
10
2.750000
20
-0.350000
41
0.075000
42
0.075000
0
INSERT
8
1
2
EPAD
10
2.850000
20
-0.350000
41
0.075000
42
0.075000
0
INSERT
8
1
2
EPAD
10
2.850000
20
-0.250000
41
0.075000
42
0.075000
0
INSERT
8
1
2
EPAD
10
2.750000
20
-0.250000
41
0.075000
42
0.075000
0
INSERT
8
1
2
EPAD
10
2.650000
20
-0.250000
41
0.075000
42
0.075000
0
INSERT
8
1
2
EPAD
10
2.650000
20
-0.350000
41
0.075000
42
0.075000
0
INSERT
8
1
2
EPAD
10
3.250000
20
-0.350000
41
0.075000
42
0.075000
0
INSERT
8
1
2
EPAD
10
3.350000
20
-0.350000
41
0.075000
42
0.075000
0
INSERT
8
1
2
EPAD
10
3.350000
20
-0.250000
41
0.075000
42
0.075000
0
INSERT
8
1
2
EPAD
10
3.150000
20
-0.250000
41
0.075000
42
0.075000
0
INSERT
8
1
2
EPAD
10
3.150000
20
-0.350000
41
0.075000
42
0.075000
0
INSERT
8
1
2
EPAD
10
3.250000
20
-0.250000
41
0.075000
42
0.075000
0
INSERT
8
1
2
EPAD
10
3.250000
20
-0.750000
41
0.075000
42
0.075000
0
INSERT
8
1
2
EPAD
10
3.350000
20
-0.750000
41
0.075000
42
0.075000
0
INSERT
8
1
2
EPAD
10
3.350000
20
-0.850000
41
0.075000
42
0.075000
0
INSERT
8
1
2
EPAD
10
3.250000
20
-0.850000
41
0.075000
42
0.075000
0
INSERT
8
1
2
EPAD
10
3.150000
20
-0.850000
41
0.075000
42
0.075000
0
INSERT
8
1
2
EPAD
10
3.150000
20
-0.750000
41
0.075000
42
0.075000
0
INSERT
8
1
2
EPAD
10
4.380908
20
-0.590068
41
0.050000
42
0.050000
0
CIRCLE
8
0
10
4.380908
20
-0.590068
40
0.025400
0
INSERT
8
1
2
EPAD
10
3.650000
20
-0.350000
41
0.075000
42
0.075000
0
INSERT
8
1
2
EPAD
10
3.650000
20
-0.250000
41
0.075000
42
0.075000
0
INSERT
8
1
2
EPAD
10
3.850000
20
-0.250000
41
0.075000
42
0.075000
0
INSERT
8
1
2
EPAD
10
3.850000
20
-0.350000
41
0.075000
42
0.075000
0
INSERT
8
1
2
EPAD
10
3.750000
20
-0.350000
41
0.075000
42
0.075000
0
INSERT
8
1
2
EPAD
10
3.750000
20
-0.250000
41
0.075000
42
0.075000
0
INSERT
8
1
2
EPAD
10
3.850000
20
-0.750000
41
0.075000
42
0.075000
0
INSERT
8
1
2
EPAD
10
3.850000
20
-0.850000
41
0.075000
42
0.075000
0
INSERT
8
1
2
EPAD
10
3.750000
20
-0.850000
41
0.075000
42
0.075000
0
INSERT
8
1
2
EPAD
10
3.750000
20
-0.750000
41
0.075000
42
0.075000
0
INSERT
8
1
2
EPAD
10
3.650000
20
-0.750000
41
0.075000
42
0.075000
0
INSERT
8
1
2
EPAD
10
3.650000
20
-0.850000
41
0.075000
42
0.075000
0
INSERT
8
1
2
EPAD
10
0.950000
20
-3.950000
41
0.075000
42
0.075000
0
INSERT
8
1
2
EPAD
10
0.850000
20
-3.950000
41
0.075000
42
0.075000
0
INSERT
8
1
2
EPAD
10
0.750000
20
-3.950000
41
0.075000
42
0.075000
0
INSERT
8
1
2
EPAD
10
0.650000
20
-3.950000
41
0.075000
42
0.075000
0
INSERT
8
1
2
EPAD
10
0.650000
20
-4.050000
41
0.075000
42
0.075000
0
INSERT
8
1
2
EPAD
10
0.750000
20
-4.050000
41
0.075000
42
0.075000
0
INSERT
8
1
2
EPAD
10
0.850000
20
-4.050000
41
0.075000
42
0.075000
0
INSERT
8
1
2
EPAD
10
0.950000
20
-4.050000
41
0.075000
42
0.075000
0
INSERT
8
1
2
EPAD
10
0.550000
20
-4.050000
41
0.075000
42
0.075000
0
INSERT
8
1
2
EPAD
10
1.650000
20
-4.050000
41
0.075000
42
0.075000
0
INSERT
8
1
2
EPAD
10
1.650000
20
-4.150000
41
0.075000
42
0.075000
0
INSERT
8
1
2
EPAD
10
1.650000
20
-4.250000
41
0.075000
42
0.075000
0
INSERT
8
1
2
EPAD
10
1.550000
20
-4.250000
41
0.075000
42
0.075000
0
INSERT
8
1
2
EPAD
10
1.550000
20
-4.150000
41
0.075000
42
0.075000
0
INSERT
8
1
2
EPAD
10
1.550000
20
-4.050000
41
0.075000
42
0.075000
0
INSERT
8
1
2
EPAD
10
2.200000
20
-4.050000
41
0.075000
42
0.075000
0
INSERT
8
1
2
EPAD
10
2.200000
20
-4.150000
41
0.075000
42
0.075000
0
INSERT
8
1
2
EPAD
10
2.200000
20
-4.250000
41
0.075000
42
0.075000
0
INSERT
8
1
2
EPAD
10
1.949450
20
-2.580217
41
0.050000
42
0.050000
0
CIRCLE
8
0
10
1.949450
20
-2.580217
40
0.025400
0
INSERT
8
1
2
EPAD
10
1.034031
20
-4.591286
41
0.050000
42
0.050000
0
CIRCLE
8
0
10
1.034031
20
-4.591286
40
0.025400
0
INSERT
8
1
2
EPAD
10
2.650000
20
-2.850000
41
0.050000
42
0.050000
0
CIRCLE
8
0
10
2.650000
20
-2.850000
40
0.025400
0
INSERT
8
1
2
EPAD
10
2.700000
20
-2.850000
41
0.050000
42
0.050000
0
CIRCLE
8
0
10
2.700000
20
-2.850000
40
0.025400
0
INSERT
8
1
2
EPAD
10
2.750000
20
-2.850000
41
0.050000
42
0.050000
0
CIRCLE
8
0
10
2.750000
20
-2.850000
40
0.025400
0
INSERT
8
1
2
EPAD
10
2.750000
20
-2.800000
41
0.050000
42
0.050000
0
CIRCLE
8
0
10
2.750000
20
-2.800000
40
0.025400
0
INSERT
8
1
2
EPAD
10
2.700000
20
-2.800000
41
0.050000
42
0.050000
0
CIRCLE
8
0
10
2.700000
20
-2.800000
40
0.025400
0
INSERT
8
1
2
EPAD
10
2.650000
20
-2.800000
41
0.050000
42
0.050000
0
CIRCLE
8
0
10
2.650000
20
-2.800000
40
0.025400
0
INSERT
8
1
2
EPAD
10
2.650000
20
-2.750000
41
0.050000
42
0.050000
0
CIRCLE
8
0
10
2.650000
20
-2.750000
40
0.025400
0
INSERT
8
1
2
EPAD
10
2.700000
20
-2.750000
41
0.050000
42
0.050000
0
CIRCLE
8
0
10
2.700000
20
-2.750000
40
0.025400
0
INSERT
8
1
2
EPAD
10
2.750000
20
-2.750000
41
0.050000
42
0.050000
0
CIRCLE
8
0
10
2.750000
20
-2.750000
40
0.025400
0
INSERT
8
1
2
EPAD
10
2.700000
20
-2.400000
41
0.050000
42
0.050000
0
CIRCLE
8
0
10
2.700000
20
-2.400000
40
0.025400
0
INSERT
8
1
2
EPAD
10
2.700000
20
-2.350000
41
0.050000
42
0.050000
0
CIRCLE
8
0
10
2.700000
20
-2.350000
40
0.025400
0
INSERT
8
1
2
EPAD
10
2.700000
20
-2.300000
41
0.050000
42
0.050000
0
CIRCLE
8
0
10
2.700000
20
-2.300000
40
0.025400
0
INSERT
8
1
2
EPAD
10
2.750000
20
-2.300000
41
0.050000
42
0.050000
0
CIRCLE
8
0
10
2.750000
20
-2.300000
40
0.025400
0
INSERT
8
1
2
EPAD
10
2.750000
20
-2.350000
41
0.050000
42
0.050000
0
CIRCLE
8
0
10
2.750000
20
-2.350000
40
0.025400
0
INSERT
8
1
2
EPAD
10
2.750000
20
-2.400000
41
0.050000
42
0.050000
0
CIRCLE
8
0
10
2.750000
20
-2.400000
40
0.025400
0
INSERT
8
1
2
EPAD
10
2.750000
20
-2.450000
41
0.050000
42
0.050000
0
CIRCLE
8
0
10
2.750000
20
-2.450000
40
0.025400
0
INSERT
8
1
2
EPAD
10
2.700000
20
-2.450000
41
0.050000
42
0.050000
0
CIRCLE
8
0
10
2.700000
20
-2.450000
40
0.025400
0
INSERT
8
1
2
EPAD
10
2.700000
20
-2.500000
41
0.050000
42
0.050000
0
CIRCLE
8
0
10
2.700000
20
-2.500000
40
0.025400
0
INSERT
8
1
2
EPAD
10
2.750000
20
-2.500000
41
0.050000
42
0.050000
0
CIRCLE
8
0
10
2.750000
20
-2.500000
40
0.025400
0
INSERT
8
1
2
EPAD
10
2.750000
20
-1.900000
41
0.050000
42
0.050000
0
CIRCLE
8
0
10
2.750000
20
-1.900000
40
0.025400
0
INSERT
8
1
2
EPAD
10
2.800000
20
-1.900000
41
0.050000
42
0.050000
0
CIRCLE
8
0
10
2.800000
20
-1.900000
40
0.025400
0
INSERT
8
1
2
EPAD
10
2.800000
20
-1.950000
41
0.050000
42
0.050000
0
CIRCLE
8
0
10
2.800000
20
-1.950000
40
0.025400
0
INSERT
8
1
2
EPAD
10
2.750000
20
-1.950000
41
0.050000
42
0.050000
0
CIRCLE
8
0
10
2.750000
20
-1.950000
40
0.025400
0
INSERT
8
1
2
EPAD
10
2.750000
20
-2.000000
41
0.050000
42
0.050000
0
CIRCLE
8
0
10
2.750000
20
-2.000000
40
0.025400
0
INSERT
8
1
2
EPAD
10
2.800000
20
-2.000000
41
0.050000
42
0.050000
0
CIRCLE
8
0
10
2.800000
20
-2.000000
40
0.025400
0
INSERT
8
1
2
EPAD
10
2.700000
20
-2.000000
41
0.050000
42
0.050000
0
CIRCLE
8
0
10
2.700000
20
-2.000000
40
0.025400
0
INSERT
8
1
2
EPAD
10
2.700000
20
-2.050000
41
0.050000
42
0.050000
0
CIRCLE
8
0
10
2.700000
20
-2.050000
40
0.025400
0
INSERT
8
1
2
EPAD
10
2.750000
20
-2.050000
41
0.050000
42
0.050000
0
CIRCLE
8
0
10
2.750000
20
-2.050000
40
0.025400
0
INSERT
8
1
2
EPAD
10
2.800000
20
-2.050000
41
0.050000
42
0.050000
0
CIRCLE
8
0
10
2.800000
20
-2.050000
40
0.025400
0
INSERT
8
1
2
EPAD
10
2.650000
20
-2.050000
41
0.050000
42
0.050000
0
CIRCLE
8
0
10
2.650000
20
-2.050000
40
0.025400
0
INSERT
8
1
2
EPAD
10
2.200000
20
-3.950000
41
0.050000
42
0.050000
0
CIRCLE
8
0
10
2.200000
20
-3.950000
40
0.025400
0
INSERT
8
1
2
EPAD
10
2.250000
20
-3.950000
41
0.050000
42
0.050000
0
CIRCLE
8
0
10
2.250000
20
-3.950000
40
0.025400
0
INSERT
8
1
2
EPAD
10
2.300000
20
-3.950000
41
0.050000
42
0.050000
0
CIRCLE
8
0
10
2.300000
20
-3.950000
40
0.025400
0
INSERT
8
1
2
EPAD
10
2.350000
20
-3.950000
41
0.050000
42
0.050000
0
CIRCLE
8
0
10
2.350000
20
-3.950000
40
0.025400
0
INSERT
8
1
2
EPAD
10
2.400000
20
-3.950000
41
0.050000
42
0.050000
0
CIRCLE
8
0
10
2.400000
20
-3.950000
40
0.025400
0
INSERT
8
1
2
EPAD
10
2.400000
20
-4.000000
41
0.050000
42
0.050000
0
CIRCLE
8
0
10
2.400000
20
-4.000000
40
0.025400
0
INSERT
8
1
2
EPAD
10
2.350000
20
-4.000000
41
0.050000
42
0.050000
0
CIRCLE
8
0
10
2.350000
20
-4.000000
40
0.025400
0
INSERT
8
1
2
EPAD
10
2.300000
20
-4.000000
41
0.050000
42
0.050000
0
CIRCLE
8
0
10
2.300000
20
-4.000000
40
0.025400
0
INSERT
8
1
2
EPAD
10
2.250000
20
-4.000000
41
0.050000
42
0.050000
0
CIRCLE
8
0
10
2.250000
20
-4.000000
40
0.025400
0
INSERT
8
1
2
EPAD
10
2.600000
20
-4.000000
41
0.050000
42
0.050000
0
CIRCLE
8
0
10
2.600000
20
-4.000000
40
0.025400
0
INSERT
8
1
2
EPAD
10
2.650000
20
-4.000000
41
0.050000
42
0.050000
0
CIRCLE
8
0
10
2.650000
20
-4.000000
40
0.025400
0
INSERT
8
1
2
EPAD
10
2.650000
20
-3.950000
41
0.050000
42
0.050000
0
CIRCLE
8
0
10
2.650000
20
-3.950000
40
0.025400
0
INSERT
8
1
2
EPAD
10
2.700000
20
-3.900000
41
0.050000
42
0.050000
0
CIRCLE
8
0
10
2.700000
20
-3.900000
40
0.025400
0
INSERT
8
1
2
EPAD
10
2.650000
20
-3.900000
41
0.050000
42
0.050000
0
CIRCLE
8
0
10
2.650000
20
-3.900000
40
0.025400
0
INSERT
8
1
2
EPAD
10
2.700000
20
-4.000000
41
0.050000
42
0.050000
0
CIRCLE
8
0
10
2.700000
20
-4.000000
40
0.025400
0
INSERT
8
1
2
EPAD
10
2.250000
20
-4.300000
41
0.050000
42
0.050000
0
CIRCLE
8
0
10
2.250000
20
-4.300000
40
0.025400
0
INSERT
8
1
2
EPAD
10
2.250000
20
-4.200000
41
0.050000
42
0.050000
0
CIRCLE
8
0
10
2.250000
20
-4.200000
40
0.025400
0
INSERT
8
1
2
EPAD
10
2.259150
20
-4.090850
41
0.050000
42
0.050000
0
CIRCLE
8
0
10
2.259150
20
-4.090850
40
0.025400
0
INSERT
8
1
2
EPAD
10
2.398675
20
-4.052718
41
0.050000
42
0.050000
0
CIRCLE
8
0
10
2.398675
20
-4.052718
40
0.025400
0
INSERT
8
1
2
EPAD
10
2.400000
20
-4.100000
41
0.050000
42
0.050000
0
CIRCLE
8
0
10
2.400000
20
-4.100000
40
0.025400
0
INSERT
8
1
2
EPAD
10
2.400000
20
-4.150000
41
0.050000
42
0.050000
0
CIRCLE
8
0
10
2.400000
20
-4.150000
40
0.025400
0
INSERT
8
1
2
EPAD
10
2.400000
20
-4.200000
41
0.050000
42
0.050000
0
CIRCLE
8
0
10
2.400000
20
-4.200000
40
0.025400
0
INSERT
8
1
2
EPAD
10
2.400000
20
-4.250000
41
0.050000
42
0.050000
0
CIRCLE
8
0
10
2.400000
20
-4.250000
40
0.025400
0
INSERT
8
1
2
EPAD
10
2.400000
20
-4.300000
41
0.050000
42
0.050000
0
CIRCLE
8
0
10
2.400000
20
-4.300000
40
0.025400
0
INSERT
8
1
2
EPAD
10
2.600000
20
-4.050000
41
0.050000
42
0.050000
0
CIRCLE
8
0
10
2.600000
20
-4.050000
40
0.025400
0
INSERT
8
1
2
EPAD
10
2.600000
20
-4.100000
41
0.050000
42
0.050000
0
CIRCLE
8
0
10
2.600000
20
-4.100000
40
0.025400
0
INSERT
8
1
2
EPAD
10
2.600000
20
-4.150000
41
0.050000
42
0.050000
0
CIRCLE
8
0
10
2.600000
20
-4.150000
40
0.025400
0
INSERT
8
1
2
EPAD
10
2.600000
20
-4.200000
41
0.050000
42
0.050000
0
CIRCLE
8
0
10
2.600000
20
-4.200000
40
0.025400
0
INSERT
8
1
2
EPAD
10
2.600000
20
-4.250000
41
0.050000
42
0.050000
0
CIRCLE
8
0
10
2.600000
20
-4.250000
40
0.025400
0
INSERT
8
1
2
EPAD
10
2.600000
20
-4.300000
41
0.050000
42
0.050000
0
CIRCLE
8
0
10
2.600000
20
-4.300000
40
0.025400
0
INSERT
8
1
2
EPAD
10
2.650000
20
-3.525000
41
0.050000
42
0.050000
0
CIRCLE
8
0
10
2.650000
20
-3.525000
40
0.025400
0
INSERT
8
1
2
EPAD
10
2.700000
20
-3.525000
41
0.050000
42
0.050000
0
CIRCLE
8
0
10
2.700000
20
-3.525000
40
0.025400
0
INSERT
8
1
2
EPAD
10
2.750000
20
-3.525000
41
0.050000
42
0.050000
0
CIRCLE
8
0
10
2.750000
20
-3.525000
40
0.025400
0
INSERT
8
1
2
EPAD
10
2.750000
20
-3.575000
41
0.050000
42
0.050000
0
CIRCLE
8
0
10
2.750000
20
-3.575000
40
0.025400
0
INSERT
8
1
2
EPAD
10
2.700000
20
-3.575000
41
0.050000
42
0.050000
0
CIRCLE
8
0
10
2.700000
20
-3.575000
40
0.025400
0
INSERT
8
1
2
EPAD
10
2.650000
20
-3.575000
41
0.050000
42
0.050000
0
CIRCLE
8
0
10
2.650000
20
-3.575000
40
0.025400
0
INSERT
8
1
2
EPAD
10
3.154200
20
-4.000900
41
0.050000
42
0.050000
0
CIRCLE
8
0
10
3.154200
20
-4.000900
40
0.025400
0
INSERT
8
1
2
EPAD
10
3.204200
20
-4.000900
41
0.050000
42
0.050000
0
CIRCLE
8
0
10
3.204200
20
-4.000900
40
0.025400
0
INSERT
8
1
2
EPAD
10
3.254200
20
-4.000900
41
0.050000
42
0.050000
0
CIRCLE
8
0
10
3.254200
20
-4.000900
40
0.025400
0
INSERT
8
1
2
EPAD
10
3.304200
20
-4.000900
41
0.050000
42
0.050000
0
CIRCLE
8
0
10
3.304200
20
-4.000900
40
0.025400
0
INSERT
8
1
2
EPAD
10
3.354200
20
-4.000900
41
0.050000
42
0.050000
0
CIRCLE
8
0
10
3.354200
20
-4.000900
40
0.025400
0
INSERT
8
1
2
EPAD
10
3.154200
20
-4.050900
41
0.050000
42
0.050000
0
CIRCLE
8
0
10
3.154200
20
-4.050900
40
0.025400
0
INSERT
8
1
2
EPAD
10
3.354200
20
-4.050900
41
0.050000
42
0.050000
0
CIRCLE
8
0
10
3.354200
20
-4.050900
40
0.025400
0
INSERT
8
1
2
EPAD
10
3.304200
20
-4.050900
41
0.050000
42
0.050000
0
CIRCLE
8
0
10
3.304200
20
-4.050900
40
0.025400
0
INSERT
8
1
2
EPAD
10
3.254200
20
-4.050900
41
0.050000
42
0.050000
0
CIRCLE
8
0
10
3.254200
20
-4.050900
40
0.025400
0
INSERT
8
1
2
EPAD
10
3.204200
20
-4.050900
41
0.050000
42
0.050000
0
CIRCLE
8
0
10
3.204200
20
-4.050900
40
0.025400
0
INSERT
8
1
2
EPAD
10
3.154200
20
-4.100900
41
0.050000
42
0.050000
0
CIRCLE
8
0
10
3.154200
20
-4.100900
40
0.025400
0
INSERT
8
1
2
EPAD
10
3.154200
20
-4.150900
41
0.050000
42
0.050000
0
CIRCLE
8
0
10
3.154200
20
-4.150900
40
0.025400
0
INSERT
8
1
2
EPAD
10
3.154200
20
-4.200900
41
0.050000
42
0.050000
0
CIRCLE
8
0
10
3.154200
20
-4.200900
40
0.025400
0
INSERT
8
1
2
EPAD
10
3.154200
20
-4.250900
41
0.050000
42
0.050000
0
CIRCLE
8
0
10
3.154200
20
-4.250900
40
0.025400
0
INSERT
8
1
2
EPAD
10
3.204200
20
-4.100900
41
0.050000
42
0.050000
0
CIRCLE
8
0
10
3.204200
20
-4.100900
40
0.025400
0
INSERT
8
1
2
EPAD
10
3.204200
20
-4.150900
41
0.050000
42
0.050000
0
CIRCLE
8
0
10
3.204200
20
-4.150900
40
0.025400
0
INSERT
8
1
2
EPAD
10
3.604200
20
-3.575900
41
0.075000
42
0.075000
0
INSERT
8
1
2
EPAD
10
3.604200
20
-3.650900
41
0.075000
42
0.075000
0
INSERT
8
1
2
EPAD
10
3.604200
20
-3.725900
41
0.075000
42
0.075000
0
INSERT
8
1
2
EPAD
10
3.604200
20
-3.800900
41
0.075000
42
0.075000
0
INSERT
8
1
2
EPAD
10
3.604200
20
-3.900900
41
0.075000
42
0.075000
0
INSERT
8
1
2
EPAD
10
3.679200
20
-3.900900
41
0.075000
42
0.075000
0
INSERT
8
1
2
EPAD
10
3.754200
20
-3.900900
41
0.075000
42
0.075000
0
INSERT
8
1
2
EPAD
10
3.604200
20
-3.975900
41
0.050000
42
0.050000
0
CIRCLE
8
0
10
3.604200
20
-3.975900
40
0.025400
0
INSERT
8
1
2
EPAD
10
3.654200
20
-3.975900
41
0.050000
42
0.050000
0
CIRCLE
8
0
10
3.654200
20
-3.975900
40
0.025400
0
INSERT
8
1
2
EPAD
10
3.704200
20
-3.975900
41
0.050000
42
0.050000
0
CIRCLE
8
0
10
3.704200
20
-3.975900
40
0.025400
0
INSERT
8
1
2
EPAD
10
3.754200
20
-3.975900
41
0.050000
42
0.050000
0
CIRCLE
8
0
10
3.754200
20
-3.975900
40
0.025400
0
INSERT
8
1
2
EPAD
10
3.804200
20
-3.975900
41
0.050000
42
0.050000
0
CIRCLE
8
0
10
3.804200
20
-3.975900
40
0.025400
0
INSERT
8
1
2
EPAD
10
3.804200
20
-3.925900
41
0.050000
42
0.050000
0
CIRCLE
8
0
10
3.804200
20
-3.925900
40
0.025400
0
INSERT
8
1
2
EPAD
10
4.404200
20
-3.575900
41
0.050000
42
0.050000
0
CIRCLE
8
0
10
4.404200
20
-3.575900
40
0.025400
0
INSERT
8
1
2
EPAD
10
4.354200
20
-3.575900
41
0.050000
42
0.050000
0
CIRCLE
8
0
10
4.354200
20
-3.575900
40
0.025400
0
INSERT
8
1
2
EPAD
10
4.354200
20
-3.625900
41
0.050000
42
0.050000
0
CIRCLE
8
0
10
4.354200
20
-3.625900
40
0.025400
0
INSERT
8
1
2
EPAD
10
4.404200
20
-3.625900
41
0.050000
42
0.050000
0
CIRCLE
8
0
10
4.404200
20
-3.625900
40
0.025400
0
INSERT
8
1
2
EPAD
10
4.404200
20
-3.675900
41
0.050000
42
0.050000
0
CIRCLE
8
0
10
4.404200
20
-3.675900
40
0.025400
0
INSERT
8
1
2
EPAD
10
4.354200
20
-3.675900
41
0.050000
42
0.050000
0
CIRCLE
8
0
10
4.354200
20
-3.675900
40
0.025400
0
INSERT
8
1
2
EPAD
10
4.354200
20
-3.725900
41
0.050000
42
0.050000
0
CIRCLE
8
0
10
4.354200
20
-3.725900
40
0.025400
0
INSERT
8
1
2
EPAD
10
4.404200
20
-3.725900
41
0.050000
42
0.050000
0
CIRCLE
8
0
10
4.404200
20
-3.725900
40
0.025400
0
INSERT
8
1
2
EPAD
10
4.404200
20
-3.775900
41
0.050000
42
0.050000
0
CIRCLE
8
0
10
4.404200
20
-3.775900
40
0.025400
0
INSERT
8
1
2
EPAD
10
4.354200
20
-3.775900
41
0.050000
42
0.050000
0
CIRCLE
8
0
10
4.354200
20
-3.775900
40
0.025400
0
INSERT
8
1
2
EPAD
10
4.354200
20
-3.825900
41
0.050000
42
0.050000
0
CIRCLE
8
0
10
4.354200
20
-3.825900
40
0.025400
0
INSERT
8
1
2
EPAD
10
4.404200
20
-3.825900
41
0.050000
42
0.050000
0
CIRCLE
8
0
10
4.404200
20
-3.825900
40
0.025400
0
INSERT
8
1
2
EPAD
10
4.404200
20
-3.875900
41
0.050000
42
0.050000
0
CIRCLE
8
0
10
4.404200
20
-3.875900
40
0.025400
0
INSERT
8
1
2
EPAD
10
4.354045
20
-3.876579
41
0.050000
42
0.050000
0
CIRCLE
8
0
10
4.354045
20
-3.876579
40
0.025400
0
INSERT
8
1
2
EPAD
10
4.454200
20
-3.875900
41
0.050000
42
0.050000
0
CIRCLE
8
0
10
4.454200
20
-3.875900
40
0.025400
0
INSERT
8
1
2
EPAD
10
4.504200
20
-3.875900
41
0.050000
42
0.050000
0
CIRCLE
8
0
10
4.504200
20
-3.875900
40
0.025400
0
INSERT
8
1
2
EPAD
10
4.554200
20
-3.875900
41
0.050000
42
0.050000
0
CIRCLE
8
0
10
4.554200
20
-3.875900
40
0.025400
0
INSERT
8
1
2
EPAD
10
3.604200
20
-4.025900
41
0.050000
42
0.050000
0
CIRCLE
8
0
10
3.604200
20
-4.025900
40
0.025400
0
INSERT
8
1
2
EPAD
10
3.654200
20
-4.025900
41
0.050000
42
0.050000
0
CIRCLE
8
0
10
3.654200
20
-4.025900
40
0.025400
0
INSERT
8
1
2
EPAD
10
3.704200
20
-4.025900
41
0.050000
42
0.050000
0
CIRCLE
8
0
10
3.704200
20
-4.025900
40
0.025400
0
INSERT
8
1
2
EPAD
10
3.754200
20
-4.025900
41
0.050000
42
0.050000
0
CIRCLE
8
0
10
3.754200
20
-4.025900
40
0.025400
0
INSERT
8
1
2
EPAD
10
3.804200
20
-4.025900
41
0.050000
42
0.050000
0
CIRCLE
8
0
10
3.804200
20
-4.025900
40
0.025400
0
INSERT
8
1
2
EPAD
10
4.054200
20
-4.075900
41
0.050000
42
0.050000
0
CIRCLE
8
0
10
4.054200
20
-4.075900
40
0.025400
0
INSERT
8
1
2
EPAD
10
4.104200
20
-4.075900
41
0.050000
42
0.050000
0
CIRCLE
8
0
10
4.104200
20
-4.075900
40
0.025400
0
INSERT
8
1
2
EPAD
10
4.154200
20
-4.075900
41
0.050000
42
0.050000
0
CIRCLE
8
0
10
4.154200
20
-4.075900
40
0.025400
0
INSERT
8
1
2
EPAD
10
4.204200
20
-4.075900
41
0.050000
42
0.050000
0
CIRCLE
8
0
10
4.204200
20
-4.075900
40
0.025400
0
INSERT
8
1
2
EPAD
10
4.204200
20
-4.025900
41
0.050000
42
0.050000
0
CIRCLE
8
0
10
4.204200
20
-4.025900
40
0.025400
0
INSERT
8
1
2
EPAD
10
4.154200
20
-4.025900
41
0.050000
42
0.050000
0
CIRCLE
8
0
10
4.154200
20
-4.025900
40
0.025400
0
INSERT
8
1
2
EPAD
10
4.104200
20
-4.025900
41
0.050000
42
0.050000
0
CIRCLE
8
0
10
4.104200
20
-4.025900
40
0.025400
0
INSERT
8
1
2
EPAD
10
4.054200
20
-4.025900
41
0.050000
42
0.050000
0
CIRCLE
8
0
10
4.054200
20
-4.025900
40
0.025400
0
INSERT
8
1
2
EPAD
10
4.002199
20
-4.028721
41
0.050000
42
0.050000
0
CIRCLE
8
0
10
4.002199
20
-4.028721
40
0.025400
0
INSERT
8
1
2
EPAD
10
4.004200
20
-4.075900
41
0.050000
42
0.050000
0
CIRCLE
8
0
10
4.004200
20
-4.075900
40
0.025400
0
INSERT
8
1
2
EPAD
10
3.204200
20
-4.200900
41
0.050000
42
0.050000
0
CIRCLE
8
0
10
3.204200
20
-4.200900
40
0.025400
0
INSERT
8
1
2
EPAD
10
3.204200
20
-4.250900
41
0.050000
42
0.050000
0
CIRCLE
8
0
10
3.204200
20
-4.250900
40
0.025400
0
INSERT
8
1
2
EPAD
10
4.900988
20
-1.723770
41
0.088900
42
0.088900
0
CIRCLE
8
0
10
4.900988
20
-1.723770
40
0.050800
0
INSERT
8
1
2
EPAD
10
3.020407
20
-4.840899
41
0.088900
42
0.088900
0
CIRCLE
8
0
10
3.020407
20
-4.840899
40
0.050800
0
INSERT
8
1
2
EPAD
10
1.468800
20
-3.197900
41
0.075000
42
0.075000
0
INSERT
8
1
2
EPAD
10
0.468800
20
-2.997900
41
0.075000
42
0.075000
0
INSERT
8
1
2
EPAD
10
0.653340
20
-5.022834
41
0.050000
42
0.050000
0
CIRCLE
8
0
10
0.653340
20
-5.022834
40
0.025400
0
INSERT
8
1
2
EPAD
10
3.744710
20
-6.199089
41
0.050000
42
0.050000
0
CIRCLE
8
0
10
3.744710
20
-6.199089
40
0.025400
0
INSERT
8
1
2
EPAD
10
3.503287
20
-6.258633
41
0.050000
42
0.050000
0
CIRCLE
8
0
10
3.503287
20
-6.258633
40
0.025400
0
INSERT
8
1
2
EPAD
10
3.200000
20
-5.775000
41
0.050000
42
0.050000
0
CIRCLE
8
0
10
3.200000
20
-5.775000
40
0.025400
0
INSERT
8
1
2
EPAD
10
3.428302
20
-5.791336
41
0.050000
42
0.050000
0
CIRCLE
8
0
10
3.428302
20
-5.791336
40
0.025400
0
INSERT
8
1
2
EPAD
10
3.915739
20
-6.426809
41
0.050000
42
0.050000
0
CIRCLE
8
0
10
3.915739
20
-6.426809
40
0.025400
0
INSERT
8
1
2
EPAD
10
1.368800
20
-3.197900
41
0.075000
42
0.075000
0
INSERT
8
1
2
EPAD
10
0.933686
20
-4.618462
41
0.050000
42
0.050000
0
CIRCLE
8
0
10
0.933686
20
-4.618462
40
0.025400
0
INSERT
8
1
2
EPAD
10
2.025153
20
-6.083066
41
0.050000
42
0.050000
0
CIRCLE
8
0
10
2.025153
20
-6.083066
40
0.025400
0
INSERT
8
1
2
EPAD
10
1.755585
20
-6.075914
41
0.050000
42
0.050000
0
CIRCLE
8
0
10
1.755585
20
-6.075914
40
0.025400
0
INSERT
8
1
2
EPAD
10
0.994825
20
-6.322622
41
0.050000
42
0.050000
0
CIRCLE
8
0
10
0.994825
20
-6.322622
40
0.025400
0
INSERT
8
1
2
EPAD
10
1.896104
20
-6.088849
41
0.050000
42
0.050000
0
CIRCLE
8
0
10
1.896104
20
-6.088849
40
0.025400
0
INSERT
8
1
2
EPAD
10
1.130300
20
-6.375400
41
0.050000
42
0.050000
0
CIRCLE
8
0
10
1.130300
20
-6.375400
40
0.025400
0
INSERT
8
1
2
EPAD
10
1.552157
20
-5.829104
41
0.050000
42
0.050000
0
CIRCLE
8
0
10
1.552157
20
-5.829104
40
0.025400
0
INSERT
8
1
2
EPAD
10
2.141926
20
-6.002727
41
0.050000
42
0.050000
0
CIRCLE
8
0
10
2.141926
20
-6.002727
40
0.025400
0
INSERT
8
1
2
EPAD
10
1.934163
20
-5.617072
41
0.050000
42
0.050000
0
CIRCLE
8
0
10
1.934163
20
-5.617072
40
0.025400
0
INSERT
8
1
2
EPAD
10
3.814509
20
-4.572190
41
0.050000
42
0.050000
0
CIRCLE
8
0
10
3.814509
20
-4.572190
40
0.025400
0
INSERT
8
1
2
EPAD
10
3.415447
20
-6.015447
41
0.050000
42
0.050000
0
CIRCLE
8
0
10
3.415447
20
-6.015447
40
0.025400
0
INSERT
8
1
2
EPAD
10
3.674002
20
-4.592495
41
0.050000
42
0.050000
0
CIRCLE
8
0
10
3.674002
20
-4.592495
40
0.025400
0
INSERT
8
1
2
EPAD
10
4.733966
20
-2.590802
41
0.050000
42
0.050000
0
CIRCLE
8
0
10
4.733966
20
-2.590802
40
0.025400
0
INSERT
8
1
2
EPAD
10
2.698091
20
-3.951323
41
0.050000
42
0.050000
0
CIRCLE
8
0
10
2.698091
20
-3.951323
40
0.025400
0
INSERT
8
1
2
EPAD
10
2.750000
20
-3.950000
41
0.050000
42
0.050000
0
CIRCLE
8
0
10
2.750000
20
-3.950000
40
0.025400
0
INSERT
8
1
2
EPAD
10
2.750000
20
-3.900000
41
0.050000
42
0.050000
0
CIRCLE
8
0
10
2.750000
20
-3.900000
40
0.025400
0
INSERT
8
1
2
EPAD
10
3.911041
20
-4.578860
41
0.050000
42
0.050000
0
CIRCLE
8
0
10
3.911041
20
-4.578860
40
0.025400
0
INSERT
8
1
2
EPAD
10
2.982600
20
-5.750000
41
0.050000
42
0.050000
0
CIRCLE
8
0
10
2.982600
20
-5.750000
40
0.025400
0
INSERT
8
1
2
EPAD
10
3.565825
20
-4.583840
41
0.050000
42
0.050000
0
CIRCLE
8
0
10
3.565825
20
-4.583840
40
0.025400
0
INSERT
8
1
2
EPAD
10
4.277379
20
-2.981072
41
0.075000
42
0.075000
0
INSERT
8
1
2
EPAD
10
2.994260
20
-2.584846
41
0.050000
42
0.050000
0
CIRCLE
8
0
10
2.994260
20
-2.584846
40
0.025400
0
INSERT
8
1
2
EPAD
10
3.294049
20
-5.140949
41
0.050000
42
0.050000
0
CIRCLE
8
0
10
3.294049
20
-5.140949
40
0.025400
0
INSERT
8
1
2
EPAD
10
3.468453
20
-3.097900
41
0.075000
42
0.075000
0
INSERT
8
1
2
EPAD
10
3.278766
20
-5.040560
41
0.050000
42
0.050000
0
CIRCLE
8
0
10
3.278766
20
-5.040560
40
0.025400
0
INSERT
8
1
2
EPAD
10
3.114070
20
-3.764207
41
0.050000
42
0.050000
0
CIRCLE
8
0
10
3.114070
20
-3.764207
40
0.025400
0
INSERT
8
1
2
EPAD
10
3.274376
20
-4.947678
41
0.050000
42
0.050000
0
CIRCLE
8
0
10
3.274376
20
-4.947678
40
0.025400
0
INSERT
8
1
2
EPAD
10
2.700000
20
-4.050000
41
0.050000
42
0.050000
0
CIRCLE
8
0
10
2.700000
20
-4.050000
40
0.025400
0
INSERT
8
1
2
EPAD
10
2.700000
20
-4.100000
41
0.050000
42
0.050000
0
CIRCLE
8
0
10
2.700000
20
-4.100000
40
0.025400
0
INSERT
8
1
2
EPAD
10
2.700000
20
-4.150000
41
0.050000
42
0.050000
0
CIRCLE
8
0
10
2.700000
20
-4.150000
40
0.025400
0
INSERT
8
1
2
EPAD
10
2.700000
20
-4.200000
41
0.050000
42
0.050000
0
CIRCLE
8
0
10
2.700000
20
-4.200000
40
0.025400
0
INSERT
8
1
2
EPAD
10
2.700000
20
-4.250000
41
0.050000
42
0.050000
0
CIRCLE
8
0
10
2.700000
20
-4.250000
40
0.025400
0
INSERT
8
1
2
EPAD
10
2.300000
20
-5.300000
41
0.050000
42
0.050000
0
CIRCLE
8
0
10
2.300000
20
-5.300000
40
0.025400
0
INSERT
8
1
2
EPAD
10
2.400000
20
-5.300000
41
0.050000
42
0.050000
0
CIRCLE
8
0
10
2.400000
20
-5.300000
40
0.025400
0
INSERT
8
1
2
EPAD
10
2.500000
20
-5.300000
41
0.050000
42
0.050000
0
CIRCLE
8
0
10
2.500000
20
-5.300000
40
0.025400
0
INSERT
8
1
2
EPAD
10
2.600000
20
-5.300000
41
0.050000
42
0.050000
0
CIRCLE
8
0
10
2.600000
20
-5.300000
40
0.025400
0
INSERT
8
1
2
EPAD
10
2.700000
20
-5.300000
41
0.050000
42
0.050000
0
CIRCLE
8
0
10
2.700000
20
-5.300000
40
0.025400
0
INSERT
8
1
2
EPAD
10
2.800000
20
-5.300000
41
0.050000
42
0.050000
0
CIRCLE
8
0
10
2.800000
20
-5.300000
40
0.025400
0
INSERT
8
1
2
EPAD
10
0.600000
20
-4.700000
41
0.050000
42
0.050000
0
CIRCLE
8
0
10
0.600000
20
-4.700000
40
0.025400
0
INSERT
8
1
2
EPAD
10
0.599719
20
-4.633406
41
0.050000
42
0.050000
0
CIRCLE
8
0
10
0.599719
20
-4.633406
40
0.025400
0
INSERT
8
1
2
EPAD
10
0.550000
20
-4.650000
41
0.050000
42
0.050000
0
CIRCLE
8
0
10
0.550000
20
-4.650000
40
0.025400
0
INSERT
8
1
2
EPAD
10
0.645165
20
-4.662867
41
0.050000
42
0.050000
0
CIRCLE
8
0
10
0.645165
20
-4.662867
40
0.025400
0
INSERT
8
1
2
EPAD
10
0.634172
20
-4.785983
41
0.050000
42
0.050000
0
CIRCLE
8
0
10
0.634172
20
-4.785983
40
0.025400
0
INSERT
8
1
2
EPAD
10
1.937738
20
-4.765785
41
0.050000
42
0.050000
0
CIRCLE
8
0
10
1.937738
20
-4.765785
40
0.025400
0
INSERT
8
1
2
EPAD
10
1.998214
20
-4.765785
41
0.050000
42
0.050000
0
CIRCLE
8
0
10
1.998214
20
-4.765785
40
0.025400
0
INSERT
8
1
2
EPAD
10
1.945396
20
-4.573702
41
0.050000
42
0.050000
0
CIRCLE
8
0
10
1.945396
20
-4.573702
40
0.025400
0
INSERT
8
1
2
EPAD
10
2.061472
20
-4.573702
41
0.050000
42
0.050000
0
CIRCLE
8
0
10
2.061472
20
-4.573702
40
0.025400
0
INSERT
8
1
2
EPAD
10
2.150000
20
-4.575000
41
0.050000
42
0.050000
0
CIRCLE
8
0
10
2.150000
20
-4.575000
40
0.025400
0
INSERT
8
1
2
EPAD
10
2.259712
20
-4.615943
41
0.050000
42
0.050000
0
CIRCLE
8
0
10
2.259712
20
-4.615943
40
0.025400
0
INSERT
8
1
2
EPAD
10
0.279400
20
-4.940300
41
0.050000
42
0.050000
0
CIRCLE
8
0
10
0.279400
20
-4.940300
40
0.025400
0
INSERT
8
1
2
EPAD
10
1.635088
20
-5.068979
41
0.050000
42
0.050000
0
CIRCLE
8
0
10
1.635088
20
-5.068979
40
0.025400
0
INSERT
8
1
2
EPAD
10
0.103300
20
-4.768696
41
0.050000
42
0.050000
0
CIRCLE
8
0
10
0.103300
20
-4.768696
40
0.025400
0
INSERT
8
1
2
EPAD
10
1.587500
20
-5.333841
41
0.050000
42
0.050000
0
CIRCLE
8
0
10
1.587500
20
-5.333841
40
0.025400
0
INSERT
8
1
2
EPAD
10
0.685800
20
-5.943600
41
0.050000
42
0.050000
0
CIRCLE
8
0
10
0.685800
20
-5.943600
40
0.025400
0
INSERT
8
1
2
EPAD
10
2.067560
20
-4.918481
41
0.050000
42
0.050000
0
CIRCLE
8
0
10
2.067560
20
-4.918481
40
0.025400
0
INSERT
8
1
2
EPAD
10
0.402310
20
-5.612854
41
0.050000
42
0.050000
0
CIRCLE
8
0
10
0.402310
20
-5.612854
40
0.025400
0
INSERT
8
1
2
EPAD
10
1.371176
20
-4.663938
41
0.050000
42
0.050000
0
CIRCLE
8
0
10
1.371176
20
-4.663938
40
0.025400
0
INSERT
8
1
2
EPAD
10
0.522901
20
-5.718100
41
0.050000
42
0.050000
0
CIRCLE
8
0
10
0.522901
20
-5.718100
40
0.025400
0
INSERT
8
1
2
EPAD
10
1.145992
20
-4.594044
41
0.050000
42
0.050000
0
CIRCLE
8
0
10
1.145992
20
-4.594044
40
0.025400
0
INSERT
8
1
2
EPAD
10
1.658909
20
-6.083402
41
0.050000
42
0.050000
0
CIRCLE
8
0
10
1.658909
20
-6.083402
40
0.025400
0
INSERT
8
1
2
EPAD
10
4.908728
20
-4.749725
41
0.050000
42
0.050000
0
CIRCLE
8
0
10
4.908728
20
-4.749725
40
0.025400
0
INSERT
8
1
2
EPAD
10
4.334812
20
-5.376559
41
0.050000
42
0.050000
0
CIRCLE
8
0
10
4.334812
20
-5.376559
40
0.025400
0
INSERT
8
1
2
EPAD
10
4.316810
20
-5.947535
41
0.050000
42
0.050000
0
CIRCLE
8
0
10
4.316810
20
-5.947535
40
0.025400
0
INSERT
8
1
2
EPAD
10
4.413066
20
-4.826132
41
0.050000
42
0.050000
0
CIRCLE
8
0
10
4.413066
20
-4.826132
40
0.025400
0
INSERT
8
1
2
EPAD
10
4.159764
20
-5.381265
41
0.050000
42
0.050000
0
CIRCLE
8
0
10
4.159764
20
-5.381265
40
0.025400
0
INSERT
8
1
2
EPAD
10
1.549400
20
-5.537200
41
0.050000
42
0.050000
0
CIRCLE
8
0
10
1.549400
20
-5.537200
40
0.025400
0
INSERT
8
1
2
EPAD
10
1.753704
20
-4.892530
41
0.050000
42
0.050000
0
CIRCLE
8
0
10
1.753704
20
-4.892530
40
0.025400
0
INSERT
8
1
2
EPAD
10
1.637619
20
-4.987646
41
0.050000
42
0.050000
0
CIRCLE
8
0
10
1.637619
20
-4.987646
40
0.025400
0
INSERT
8
1
2
EPAD
10
0.405300
20
-4.547700
41
0.050000
42
0.050000
0
CIRCLE
8
0
10
0.405300
20
-4.547700
40
0.025400
0
INSERT
8
1
2
EPAD
10
0.596900
20
-5.156200
41
0.050000
42
0.050000
0
CIRCLE
8
0
10
0.596900
20
-5.156200
40
0.025400
0
INSERT
8
1
2
EPAD
10
0.160649
20
-2.656649
41
0.050000
42
0.050000
0
CIRCLE
8
0
10
0.160649
20
-2.656649
40
0.025400
0
INSERT
8
2
2
EPAD
10
0.300000
20
-0.200000
41
0.312000
42
0.312000
0
CIRCLE
8
0
10
0.300000
20
-0.200000
40
0.025400
0
INSERT
8
2
2
EPAD
10
4.700000
20
-0.200000
41
0.312000
42
0.312000
0
CIRCLE
8
0
10
4.700000
20
-0.200000
40
0.025400
0
INSERT
8
2
2
RPAD
10
2.244200
20
-2.980300
41
0.190500
42
0.190500
50
0.000000
0
CIRCLE
8
0
10
2.244200
20
-2.980300
40
0.063500
0
INSERT
8
2
2
EPAD
10
2.744200
20
-2.980300
41
0.203200
42
0.203200
0
CIRCLE
8
0
10
2.744200
20
-2.980300
40
0.063500
0
INSERT
8
2
2
RPAD
10
2.250000
20
-1.775000
41
0.190500
42
0.190500
50
0.000000
0
CIRCLE
8
0
10
2.250000
20
-1.775000
40
0.063500
0
INSERT
8
2
2
EPAD
10
2.750000
20
-1.775000
41
0.203200
42
0.203200
0
CIRCLE
8
0
10
2.750000
20
-1.775000
40
0.063500
0
INSERT
8
2
2
EPAD
10
0.300000
20
-6.200000
41
0.312000
42
0.312000
0
CIRCLE
8
0
10
0.300000
20
-6.200000
40
0.025400
0
INSERT
8
2
2
EPAD
10
4.700000
20
-6.200000
41
0.312000
42
0.312000
0
CIRCLE
8
0
10
4.700000
20
-6.200000
40
0.025400
0
INSERT
8
2
2
EPAD
10
2.750000
20
-0.550000
41
0.254000
42
0.254000
0
CIRCLE
8
0
10
2.750000
20
-0.550000
40
0.030480
0
INSERT
8
2
2
EPAD
10
2.250000
20
-0.550000
41
0.254000
42
0.254000
0
CIRCLE
8
0
10
2.250000
20
-0.550000
40
0.030480
0
INSERT
8
2
2
EPAD
10
1.750000
20
-0.550000
41
0.254000
42
0.254000
0
CIRCLE
8
0
10
1.750000
20
-0.550000
40
0.030480
0
INSERT
8
2
2
EPAD
10
1.250000
20
-0.550000
41
0.254000
42
0.254000
0
CIRCLE
8
0
10
1.250000
20
-0.550000
40
0.030480
0
INSERT
8
2
2
EPAD
10
3.750000
20
-0.550000
41
0.254000
42
0.254000
0
CIRCLE
8
0
10
3.750000
20
-0.550000
40
0.030480
0
INSERT
8
2
2
EPAD
10
3.250000
20
-0.550000
41
0.254000
42
0.254000
0
CIRCLE
8
0
10
3.250000
20
-0.550000
40
0.030480
0
POLYLINE
8
3
66
1
40
0.020320
41
0.020320
0
VERTEX
8
3
10
0.300000
20
0.100000
0
VERTEX
8
3
10
0.238660
20
0.094031
0
VERTEX
8
3
10
0.181934
20
0.076855
0
VERTEX
8
3
10
0.130921
20
0.049573
0
VERTEX
8
3
10
0.086719
20
0.013281
0
VERTEX
8
3
10
0.050427
20
-0.030920
0
VERTEX
8
3
10
0.023145
20
-0.081934
0
VERTEX
8
3
10
0.005969
20
-0.138660
0
VERTEX
8
3
10
0.000000
20
-0.200000
0
SEQEND
8
3
0
POLYLINE
8
3
66
1
40
0.020320
41
0.020320
0
VERTEX
8
3
10
4.700000
20
0.100000
0
VERTEX
8
3
10
4.761340
20
0.094031
0
VERTEX
8
3
10
4.818066
20
0.076855
0
VERTEX
8
3
10
4.869079
20
0.049573
0
VERTEX
8
3
10
4.913281
20
0.013281
0
VERTEX
8
3
10
4.949573
20
-0.030920
0
VERTEX
8
3
10
4.976855
20
-0.081934
0
VERTEX
8
3
10
4.994031
20
-0.138660
0
VERTEX
8
3
10
5.000000
20
-0.200000
0
SEQEND
8
3
0
POLYLINE
8
3
66
1
40
0.020320
41
0.020320
0
VERTEX
8
3
10
0.000000
20
-6.200000
0
VERTEX
8
3
10
0.005969
20
-6.261340
0
VERTEX
8
3
10
0.023145
20
-6.318066
0
VERTEX
8
3
10
0.050427
20
-6.369080
0
VERTEX
8
3
10
0.086719
20
-6.413281
0
VERTEX
8
3
10
0.130921
20
-6.449573
0
VERTEX
8
3
10
0.181934
20
-6.476855
0
VERTEX
8
3
10
0.238660
20
-6.494031
0
VERTEX
8
3
10
0.300000
20
-6.500000
0
SEQEND
8
3
0
POLYLINE
8
3
66
1
40
0.020320
41
0.020320
0
VERTEX
8
3
10
5.000000
20
-6.200000
0
VERTEX
8
3
10
4.994031
20
-6.261340
0
VERTEX
8
3
10
4.976855
20
-6.318066
0
VERTEX
8
3
10
4.949573
20
-6.369080
0
VERTEX
8
3
10
4.913281
20
-6.413281
0
VERTEX
8
3
10
4.869079
20
-6.449573
0
VERTEX
8
3
10
4.818066
20
-6.476855
0
VERTEX
8
3
10
4.761340
20
-6.494031
0
VERTEX
8
3
10
4.700000
20
-6.500000
0
VERTEX
8
3
10
0.300000
20
-6.500000
0
SEQEND
8
3
0
POLYLINE
8
3
66
1
40
0.020320
41
0.020320
0
VERTEX
8
3
10
0.000000
20
-6.200000
0
VERTEX
8
3
10
0.000000
20
-0.200000
0
SEQEND
8
3
0
POLYLINE
8
3
66
1
40
0.020320
41
0.020320
0
VERTEX
8
3
10
0.300000
20
0.100000
0
VERTEX
8
3
10
4.700000
20
0.100000
0
SEQEND
8
3
0
POLYLINE
8
3
66
1
40
0.020320
41
0.020320
0
VERTEX
8
3
10
5.000000
20
-0.200000
0
VERTEX
8
3
10
5.000000
20
-6.200000
0
SEQEND
8
3
0
ENDSEC
0
EOF

