  0
SECTION
  2
HEADER
  9
$ACADVER
  1
AC1009
  9
$INSUNITS
 70
     1
 9
$MEASUREMENT
 70
    0
  0
ENDSEC
  0
SECTION
  2
TABLES
  0
TABLE
  2
LAYER
 70
     8
  0
LAYER
  2
0
 62
     7
 70
0
  6
CONTINUOUS
  0
LAYER
  2
1
 62
     1
 70
0
  6
CONTINUOUS
  0
LAYER
  2
2
 62
     2
 70
0
  6
CONTINUOUS
  0
LAYER
  2
3
 62
     3
 70
0
  6
CONTINUOUS
  0
LAYER
  2
4
 62
     4
 70
0
  6
CONTINUOUS
  0
LAYER
  2
5
 62
     5
 70
0
  6
CONTINUOUS
  0
LAYER
  2
6
 62
     6
 70
0
  6
CONTINUOUS
  0
LAYER
  2
7
 62
     7
 70
0
  6
CONTINUOUS
  0
ENDTAB
  0
TABLE
  2
STYLE
 70
     1
  0
STYLE
 70
     0
  2
STANDARD
  3
TXT
 40
0.00
 41
1.00
 42
1.00
 50
0.00
 71
     0
  0
ENDTAB
  0
ENDSEC
  0
SECTION
  2
BLOCKS
  0
BLOCK
  8
0
  2
EPAD
 70
0
 10
0.0
 20
0.0
  0
POLYLINE
  8
0
 66
1
 70
1
 40
0.5
 41
0.5
  0
VERTEX
  8
0
 10
-0.25
 20
0.0
 42
1.0
  0
VERTEX
  8
0
 10
0.25
 20
0.0
 42
1.0
  0
SEQEND
  8
0
  0
ENDBLK
  8
0
  0
BLOCK
  8
0
  2
RPAD
 70
0
 10
0.0
 20
0.0
  0
TRACE
  8
0
 10
-0.5
 20
-0.5
 11
-0.5
 21
0.5
 12
0.5
 22
-0.5
 13
0.5
 23
0.5
  0
ENDBLK
  8
0
  0
ENDSEC
0
SECTION
2
ENTITIES
0
INSERT
8
1
2
EPAD
10
0.405392
20
-0.519431
41
0.019685
42
0.019685
0
CIRCLE
8
0
10
0.405392
20
-0.519431
40
0.010000
0
INSERT
8
1
2
EPAD
10
0.452598
20
-0.515606
41
0.019685
42
0.019685
0
CIRCLE
8
0
10
0.452598
20
-0.515606
40
0.010000
0
INSERT
8
1
2
EPAD
10
0.596854
20
-0.664070
41
0.019685
42
0.019685
0
CIRCLE
8
0
10
0.596854
20
-0.664070
40
0.010000
0
INSERT
8
1
2
EPAD
10
0.661453
20
-0.652180
41
0.019685
42
0.019685
0
CIRCLE
8
0
10
0.661453
20
-0.652180
40
0.010000
0
INSERT
8
1
2
EPAD
10
0.756346
20
-0.515067
41
0.019685
42
0.019685
0
CIRCLE
8
0
10
0.756346
20
-0.515067
40
0.010000
0
INSERT
8
1
2
EPAD
10
0.566319
20
-0.510681
41
0.019685
42
0.019685
0
CIRCLE
8
0
10
0.566319
20
-0.510681
40
0.010000
0
INSERT
8
1
2
EPAD
10
0.764566
20
-0.425098
41
0.019685
42
0.019685
0
CIRCLE
8
0
10
0.764566
20
-0.425098
40
0.010000
0
INSERT
8
1
2
EPAD
10
0.742228
20
-0.360541
41
0.019685
42
0.019685
0
CIRCLE
8
0
10
0.742228
20
-0.360541
40
0.010000
0
INSERT
8
1
2
EPAD
10
0.596602
20
-0.407540
41
0.019685
42
0.019685
0
CIRCLE
8
0
10
0.596602
20
-0.407540
40
0.010000
0
INSERT
8
1
2
EPAD
10
0.712896
20
-0.334597
41
0.019685
42
0.019685
0
CIRCLE
8
0
10
0.712896
20
-0.334597
40
0.010000
0
INSERT
8
1
2
EPAD
10
0.527968
20
-0.512780
41
0.019685
42
0.019685
0
CIRCLE
8
0
10
0.527968
20
-0.512780
40
0.010000
0
INSERT
8
1
2
EPAD
10
0.536000
20
-0.408000
41
0.019685
42
0.019685
0
CIRCLE
8
0
10
0.536000
20
-0.408000
40
0.010000
0
INSERT
8
1
2
EPAD
10
0.334013
20
-0.515731
41
0.019685
42
0.019685
0
CIRCLE
8
0
10
0.334013
20
-0.515731
40
0.010000
0
INSERT
8
1
2
EPAD
10
0.272659
20
-0.416884
41
0.019685
42
0.019685
0
CIRCLE
8
0
10
0.272659
20
-0.416884
40
0.010000
0
INSERT
8
1
2
EPAD
10
0.108494
20
-0.247850
41
0.019685
42
0.019685
0
CIRCLE
8
0
10
0.108494
20
-0.247850
40
0.010000
0
INSERT
8
1
2
EPAD
10
0.150451
20
-0.471882
41
0.019685
42
0.019685
0
CIRCLE
8
0
10
0.150451
20
-0.471882
40
0.010000
0
INSERT
8
1
2
EPAD
10
0.817076
20
-0.509924
41
0.019685
42
0.019685
0
CIRCLE
8
0
10
0.817076
20
-0.509924
40
0.010000
0
INSERT
8
1
2
EPAD
10
0.845000
20
-0.472000
41
0.019685
42
0.019685
0
CIRCLE
8
0
10
0.845000
20
-0.472000
40
0.010000
0
INSERT
8
1
2
EPAD
10
0.884588
20
-0.516977
41
0.019685
42
0.019685
0
CIRCLE
8
0
10
0.884588
20
-0.516977
40
0.010000
0
INSERT
8
1
2
EPAD
10
0.943694
20
-0.433217
41
0.019685
42
0.019685
0
CIRCLE
8
0
10
0.943694
20
-0.433217
40
0.010000
0
INSERT
8
1
2
EPAD
10
0.920315
20
-0.609331
41
0.019685
42
0.019685
0
CIRCLE
8
0
10
0.920315
20
-0.609331
40
0.010000
0
INSERT
8
1
2
EPAD
10
0.930179
20
-0.497798
41
0.019685
42
0.019685
0
CIRCLE
8
0
10
0.930179
20
-0.497798
40
0.010000
0
INSERT
8
1
2
EPAD
10
0.152797
20
-0.433446
41
0.019685
42
0.019685
0
CIRCLE
8
0
10
0.152797
20
-0.433446
40
0.010000
0
INSERT
8
1
2
EPAD
10
0.953282
20
-0.393179
41
0.019685
42
0.019685
0
CIRCLE
8
0
10
0.953282
20
-0.393179
40
0.010000
0
INSERT
8
1
2
EPAD
10
0.680000
20
-0.297000
41
0.019685
42
0.019685
0
CIRCLE
8
0
10
0.680000
20
-0.297000
40
0.010000
0
INSERT
8
1
2
EPAD
10
0.646926
20
-0.199920
41
0.019685
42
0.019685
0
CIRCLE
8
0
10
0.646926
20
-0.199920
40
0.010000
0
INSERT
8
1
2
EPAD
10
0.887757
20
-0.307213
41
0.019685
42
0.019685
0
CIRCLE
8
0
10
0.887757
20
-0.307213
40
0.010000
0
INSERT
8
2
2
EPAD
10
0.078740
20
-0.078740
41
0.078780
42
0.078780
0
CIRCLE
8
0
10
0.078740
20
-0.078740
40
0.078740
0
INSERT
8
2
2
EPAD
10
1.023622
20
-0.078740
41
0.078780
42
0.078780
0
CIRCLE
8
0
10
1.023622
20
-0.078740
40
0.078740
0
INSERT
8
2
2
EPAD
10
1.023622
20
-0.748031
41
0.078780
42
0.078780
0
CIRCLE
8
0
10
1.023622
20
-0.748031
40
0.078740
0
INSERT
8
2
2
EPAD
10
0.078740
20
-0.748031
41
0.078780
42
0.078780
0
CIRCLE
8
0
10
0.078740
20
-0.748031
40
0.078740
0
INSERT
8
2
2
EPAD
10
0.201181
20
-0.090000
41
0.074000
42
0.074000
0
CIRCLE
8
0
10
0.201181
20
-0.090000
40
0.005000
0
INSERT
8
2
2
EPAD
10
0.301181
20
-0.090000
41
0.074000
42
0.074000
0
CIRCLE
8
0
10
0.301181
20
-0.090000
40
0.005000
0
INSERT
8
2
2
EPAD
10
0.401181
20
-0.090000
41
0.074000
42
0.074000
0
CIRCLE
8
0
10
0.401181
20
-0.090000
40
0.005000
0
INSERT
8
2
2
EPAD
10
0.501181
20
-0.090000
41
0.074000
42
0.074000
0
CIRCLE
8
0
10
0.501181
20
-0.090000
40
0.005000
0
INSERT
8
2
2
EPAD
10
0.601181
20
-0.090000
41
0.074000
42
0.074000
0
CIRCLE
8
0
10
0.601181
20
-0.090000
40
0.005000
0
INSERT
8
2
2
EPAD
10
0.701181
20
-0.090000
41
0.074000
42
0.074000
0
CIRCLE
8
0
10
0.701181
20
-0.090000
40
0.005000
0
INSERT
8
2
2
EPAD
10
0.801181
20
-0.090000
41
0.074000
42
0.074000
0
CIRCLE
8
0
10
0.801181
20
-0.090000
40
0.005000
0
INSERT
8
2
2
EPAD
10
0.901181
20
-0.090000
41
0.074000
42
0.074000
0
CIRCLE
8
0
10
0.901181
20
-0.090000
40
0.005000
0
INSERT
8
2
2
EPAD
10
0.201181
20
-0.740000
41
0.070000
42
0.070000
0
INSERT
8
2
2
EPAD
10
0.401181
20
-0.740000
41
0.070000
42
0.070000
0
INSERT
8
2
2
EPAD
10
0.701181
20
-0.740000
41
0.070000
42
0.070000
0
INSERT
8
2
2
EPAD
10
0.501181
20
-0.740000
41
0.070000
42
0.070000
0
INSERT
8
2
2
EPAD
10
0.901181
20
-0.740000
41
0.070000
42
0.070000
0
INSERT
8
2
2
EPAD
10
0.801181
20
-0.740000
41
0.070000
42
0.070000
0
INSERT
8
2
2
EPAD
10
0.301181
20
-0.740000
41
0.070000
42
0.070000
0
INSERT
8
2
2
EPAD
10
0.601181
20
-0.740000
41
0.070000
42
0.070000
0
POLYLINE
8
3
66
1
40
0.008000
41
0.008000
0
VERTEX
8
3
10
0.098425
20
0.000000
0
VERTEX
8
3
10
0.078300
20
-0.001958
0
VERTEX
8
3
10
0.059689
20
-0.007593
0
VERTEX
8
3
10
0.042953
20
-0.016544
0
VERTEX
8
3
10
0.028451
20
-0.028451
0
VERTEX
8
3
10
0.016544
20
-0.042953
0
VERTEX
8
3
10
0.007593
20
-0.059689
0
VERTEX
8
3
10
0.001958
20
-0.078300
0
VERTEX
8
3
10
0.000000
20
-0.098425
0
SEQEND
8
3
0
POLYLINE
8
3
66
1
40
0.008000
41
0.008000
0
VERTEX
8
3
10
1.003937
20
0.000000
0
VERTEX
8
3
10
1.024062
20
-0.001958
0
VERTEX
8
3
10
1.042673
20
-0.007593
0
VERTEX
8
3
10
1.059409
20
-0.016544
0
VERTEX
8
3
10
1.073911
20
-0.028451
0
VERTEX
8
3
10
1.085818
20
-0.042953
0
VERTEX
8
3
10
1.094769
20
-0.059689
0
VERTEX
8
3
10
1.100404
20
-0.078300
0
VERTEX
8
3
10
1.102362
20
-0.098425
0
SEQEND
8
3
0
POLYLINE
8
3
66
1
40
0.008000
41
0.008000
0
VERTEX
8
3
10
0.000000
20
-0.728346
0
VERTEX
8
3
10
0.001958
20
-0.748471
0
VERTEX
8
3
10
0.007593
20
-0.767082
0
VERTEX
8
3
10
0.016544
20
-0.783819
0
VERTEX
8
3
10
0.028451
20
-0.798320
0
VERTEX
8
3
10
0.042953
20
-0.810227
0
VERTEX
8
3
10
0.059689
20
-0.819178
0
VERTEX
8
3
10
0.078300
20
-0.824813
0
VERTEX
8
3
10
0.098425
20
-0.826772
0
SEQEND
8
3
0
POLYLINE
8
3
66
1
40
0.008000
41
0.008000
0
VERTEX
8
3
10
1.102362
20
-0.728346
0
VERTEX
8
3
10
1.100404
20
-0.748471
0
VERTEX
8
3
10
1.094769
20
-0.767082
0
VERTEX
8
3
10
1.085818
20
-0.783819
0
VERTEX
8
3
10
1.073911
20
-0.798320
0
VERTEX
8
3
10
1.059409
20
-0.810227
0
VERTEX
8
3
10
1.042673
20
-0.819178
0
VERTEX
8
3
10
1.024062
20
-0.824813
0
VERTEX
8
3
10
1.003937
20
-0.826772
0
SEQEND
8
3
0
POLYLINE
8
3
66
1
40
0.008000
41
0.008000
0
VERTEX
8
3
10
0.098425
20
-0.826772
0
VERTEX
8
3
10
1.003937
20
-0.826772
0
SEQEND
8
3
0
POLYLINE
8
3
66
1
40
0.008000
41
0.008000
0
VERTEX
8
3
10
1.102362
20
-0.728346
0
VERTEX
8
3
10
1.102362
20
-0.098425
0
SEQEND
8
3
0
POLYLINE
8
3
66
1
40
0.008000
41
0.008000
0
VERTEX
8
3
10
1.003937
20
0.000000
0
VERTEX
8
3
10
0.098425
20
0.000000
0
SEQEND
8
3
0
POLYLINE
8
3
66
1
40
0.008000
41
0.008000
0
VERTEX
8
3
10
0.000000
20
-0.098425
0
VERTEX
8
3
10
0.000000
20
-0.728346
0
SEQEND
8
3
0
ENDSEC
0
EOF

