  0
SECTION
  2
HEADER
  9
$ACADVER
  1
AC1009
  9
$INSUNITS
 70
     5
 9
$MEASUREMENT
 70
    1
  0
ENDSEC
  0
SECTION
  2
TABLES
  0
TABLE
  2
LAYER
 70
     8
  0
LAYER
  2
0
 62
     7
 70
0
  6
CONTINUOUS
  0
LAYER
  2
1
 62
     1
 70
0
  6
CONTINUOUS
  0
LAYER
  2
2
 62
     2
 70
0
  6
CONTINUOUS
  0
LAYER
  2
3
 62
     3
 70
0
  6
CONTINUOUS
  0
LAYER
  2
4
 62
     4
 70
0
  6
CONTINUOUS
  0
LAYER
  2
5
 62
     5
 70
0
  6
CONTINUOUS
  0
LAYER
  2
6
 62
     6
 70
0
  6
CONTINUOUS
  0
LAYER
  2
7
 62
     7
 70
0
  6
CONTINUOUS
  0
ENDTAB
  0
TABLE
  2
STYLE
 70
     1
  0
STYLE
 70
     0
  2
STANDARD
  3
TXT
 40
0.00
 41
1.00
 42
1.00
 50
0.00
 71
     0
  0
ENDTAB
  0
ENDSEC
  0
SECTION
  2
BLOCKS
  0
BLOCK
  8
0
  2
EPAD
 70
0
 10
0.0
 20
0.0
  0
POLYLINE
  8
0
 66
1
 70
1
 40
0.5
 41
0.5
  0
VERTEX
  8
0
 10
-0.25
 20
0.0
 42
1.0
  0
VERTEX
  8
0
 10
0.25
 20
0.0
 42
1.0
  0
SEQEND
  8
0
  0
ENDBLK
  8
0
  0
BLOCK
  8
0
  2
RPAD
 70
0
 10
0.0
 20
0.0
  0
TRACE
  8
0
 10
-0.5
 20
-0.5
 11
-0.5
 21
0.5
 12
0.5
 22
-0.5
 13
0.5
 23
0.5
  0
ENDBLK
  8
0
  0
ENDSEC
0
SECTION
2
ENTITIES
0
INSERT
8
1
2
EPAD
10
1.475199
20
-1.343495
41
0.050000
42
0.050000
0
CIRCLE
8
0
10
1.475199
20
-1.343495
40
0.012700
0
INSERT
8
1
2
EPAD
10
1.462705
20
-0.655946
41
0.050000
42
0.050000
0
CIRCLE
8
0
10
1.462705
20
-0.655946
40
0.012700
0
INSERT
8
1
2
EPAD
10
0.765842
20
-1.067936
41
0.050000
42
0.050000
0
CIRCLE
8
0
10
0.765842
20
-1.067936
40
0.012700
0
INSERT
8
1
2
EPAD
10
0.652456
20
-1.008292
41
0.050000
42
0.050000
0
CIRCLE
8
0
10
0.652456
20
-1.008292
40
0.012700
0
INSERT
8
1
2
EPAD
10
0.584200
20
-0.939800
41
0.050000
42
0.050000
0
CIRCLE
8
0
10
0.584200
20
-0.939800
40
0.012700
0
INSERT
8
1
2
EPAD
10
0.114300
20
-0.774700
41
0.050000
42
0.050000
0
CIRCLE
8
0
10
0.114300
20
-0.774700
40
0.012700
0
INSERT
8
1
2
EPAD
10
0.177800
20
-0.736600
41
0.050000
42
0.050000
0
CIRCLE
8
0
10
0.177800
20
-0.736600
40
0.012700
0
INSERT
8
1
2
EPAD
10
0.228214
20
-0.773212
41
0.050000
42
0.050000
0
CIRCLE
8
0
10
0.228214
20
-0.773212
40
0.012700
0
INSERT
8
1
2
EPAD
10
0.279400
20
-0.736600
41
0.050000
42
0.050000
0
CIRCLE
8
0
10
0.279400
20
-0.736600
40
0.012700
0
INSERT
8
1
2
EPAD
10
0.330200
20
-0.787400
41
0.050000
42
0.050000
0
CIRCLE
8
0
10
0.330200
20
-0.787400
40
0.012700
0
INSERT
8
1
2
EPAD
10
0.395038
20
-0.732850
41
0.050000
42
0.050000
0
CIRCLE
8
0
10
0.395038
20
-0.732850
40
0.012700
0
INSERT
8
1
2
EPAD
10
0.444500
20
-0.685800
41
0.050000
42
0.050000
0
CIRCLE
8
0
10
0.444500
20
-0.685800
40
0.012700
0
INSERT
8
1
2
EPAD
10
0.444631
20
-0.633955
41
0.050000
42
0.050000
0
CIRCLE
8
0
10
0.444631
20
-0.633955
40
0.012700
0
INSERT
8
1
2
EPAD
10
0.508000
20
-0.723900
41
0.050000
42
0.050000
0
CIRCLE
8
0
10
0.508000
20
-0.723900
40
0.012700
0
INSERT
8
1
2
EPAD
10
0.558800
20
-0.774700
41
0.050000
42
0.050000
0
CIRCLE
8
0
10
0.558800
20
-0.774700
40
0.012700
0
INSERT
8
1
2
EPAD
10
1.460500
20
-0.571500
41
0.050000
42
0.050000
0
CIRCLE
8
0
10
1.460500
20
-0.571500
40
0.012700
0
INSERT
8
1
2
EPAD
10
1.461341
20
-0.488675
41
0.050000
42
0.050000
0
CIRCLE
8
0
10
1.461341
20
-0.488675
40
0.012700
0
INSERT
8
1
2
EPAD
10
1.461341
20
-0.399605
41
0.050000
42
0.050000
0
CIRCLE
8
0
10
1.461341
20
-0.399605
40
0.012700
0
INSERT
8
1
2
EPAD
10
1.461341
20
-0.323545
41
0.050000
42
0.050000
0
CIRCLE
8
0
10
1.461341
20
-0.323545
40
0.012700
0
INSERT
8
1
2
EPAD
10
1.460500
20
-0.228600
41
0.050000
42
0.050000
0
CIRCLE
8
0
10
1.460500
20
-0.228600
40
0.012700
0
INSERT
8
1
2
EPAD
10
1.462342
20
-0.149408
41
0.050000
42
0.050000
0
CIRCLE
8
0
10
1.462342
20
-0.149408
40
0.012700
0
INSERT
8
1
2
EPAD
10
1.759576
20
-0.657807
41
0.050000
42
0.050000
0
CIRCLE
8
0
10
1.759576
20
-0.657807
40
0.012700
0
INSERT
8
1
2
EPAD
10
1.760577
20
-0.588753
41
0.050000
42
0.050000
0
CIRCLE
8
0
10
1.760577
20
-0.588753
40
0.012700
0
INSERT
8
1
2
EPAD
10
1.533398
20
-0.570739
41
0.050000
42
0.050000
0
CIRCLE
8
0
10
1.533398
20
-0.570739
40
0.012700
0
INSERT
8
1
2
EPAD
10
1.616463
20
-0.571740
41
0.050000
42
0.050000
0
CIRCLE
8
0
10
1.616463
20
-0.571740
40
0.012700
0
INSERT
8
1
2
EPAD
10
1.534399
20
-0.476666
41
0.050000
42
0.050000
0
CIRCLE
8
0
10
1.534399
20
-0.476666
40
0.012700
0
INSERT
8
1
2
EPAD
10
1.570260
20
-0.169089
41
0.050000
42
0.050000
0
CIRCLE
8
0
10
1.570260
20
-0.169089
40
0.012700
0
INSERT
8
1
2
EPAD
10
1.743729
20
-0.091028
41
0.050000
42
0.050000
0
CIRCLE
8
0
10
1.743729
20
-0.091028
40
0.012700
0
INSERT
8
1
2
EPAD
10
1.037195
20
-1.009974
41
0.050000
42
0.050000
0
CIRCLE
8
0
10
1.037195
20
-1.009974
40
0.012700
0
INSERT
8
1
2
EPAD
10
1.037195
20
-0.942338
41
0.050000
42
0.050000
0
CIRCLE
8
0
10
1.037195
20
-0.942338
40
0.012700
0
INSERT
8
1
2
EPAD
10
1.124920
20
-0.943008
41
0.050000
42
0.050000
0
CIRCLE
8
0
10
1.124920
20
-0.943008
40
0.012700
0
INSERT
8
1
2
EPAD
10
1.036500
20
-1.074600
41
0.050000
42
0.050000
0
CIRCLE
8
0
10
1.036500
20
-1.074600
40
0.012700
0
INSERT
8
1
2
EPAD
10
1.037195
20
-1.143000
41
0.050000
42
0.050000
0
CIRCLE
8
0
10
1.037195
20
-1.143000
40
0.012700
0
INSERT
8
1
2
EPAD
10
1.038721
20
-1.209179
41
0.050000
42
0.050000
0
CIRCLE
8
0
10
1.038721
20
-1.209179
40
0.012700
0
INSERT
8
1
2
EPAD
10
1.124888
20
-1.203418
41
0.050000
42
0.050000
0
CIRCLE
8
0
10
1.124888
20
-1.203418
40
0.012700
0
INSERT
8
1
2
EPAD
10
0.952072
20
-1.202748
41
0.050000
42
0.050000
0
CIRCLE
8
0
10
0.952072
20
-1.202748
40
0.012700
0
INSERT
8
1
2
EPAD
10
0.952072
20
-0.947544
41
0.050000
42
0.050000
0
CIRCLE
8
0
10
0.952072
20
-0.947544
40
0.012700
0
INSERT
8
1
2
EPAD
10
1.118860
20
-1.010508
41
0.050000
42
0.050000
0
CIRCLE
8
0
10
1.118860
20
-1.010508
40
0.012700
0
INSERT
8
1
2
EPAD
10
1.124920
20
-1.074812
41
0.050000
42
0.050000
0
CIRCLE
8
0
10
1.124920
20
-1.074812
40
0.012700
0
INSERT
8
1
2
EPAD
10
1.124888
20
-1.143133
41
0.050000
42
0.050000
0
CIRCLE
8
0
10
1.124888
20
-1.143133
40
0.012700
0
INSERT
8
1
2
EPAD
10
0.952072
20
-1.143000
41
0.050000
42
0.050000
0
CIRCLE
8
0
10
0.952072
20
-1.143000
40
0.012700
0
INSERT
8
1
2
EPAD
10
0.946043
20
-1.076151
41
0.050000
42
0.050000
0
CIRCLE
8
0
10
0.946043
20
-1.076151
40
0.012700
0
INSERT
8
1
2
EPAD
10
0.952072
20
-1.010508
41
0.050000
42
0.050000
0
CIRCLE
8
0
10
0.952072
20
-1.010508
40
0.012700
0
INSERT
8
1
2
EPAD
10
0.548102
20
-1.239451
41
0.050000
42
0.050000
0
CIRCLE
8
0
10
0.548102
20
-1.239451
40
0.012700
0
INSERT
8
1
2
EPAD
10
0.467020
20
-1.237660
41
0.050000
42
0.050000
0
CIRCLE
8
0
10
0.467020
20
-1.237660
40
0.012700
0
INSERT
8
1
2
EPAD
10
0.330200
20
-1.130300
41
0.050000
42
0.050000
0
CIRCLE
8
0
10
0.330200
20
-1.130300
40
0.012700
0
INSERT
8
1
2
EPAD
10
0.330200
20
-1.181100
41
0.050000
42
0.050000
0
CIRCLE
8
0
10
0.330200
20
-1.181100
40
0.012700
0
INSERT
8
1
2
EPAD
10
0.563839
20
-1.345193
41
0.050000
42
0.050000
0
CIRCLE
8
0
10
0.563839
20
-1.345193
40
0.012700
0
INSERT
8
1
2
EPAD
10
0.564847
20
-1.418771
41
0.050000
42
0.050000
0
CIRCLE
8
0
10
0.564847
20
-1.418771
40
0.012700
0
INSERT
8
1
2
EPAD
10
0.562831
20
-1.492350
41
0.050000
42
0.050000
0
CIRCLE
8
0
10
0.562831
20
-1.492350
40
0.012700
0
INSERT
8
1
2
EPAD
10
0.589038
20
-1.568953
41
0.050000
42
0.050000
0
CIRCLE
8
0
10
0.589038
20
-1.568953
40
0.012700
0
INSERT
8
1
2
EPAD
10
0.859104
20
-1.659542
41
0.050000
42
0.050000
0
CIRCLE
8
0
10
0.859104
20
-1.659542
40
0.012700
0
INSERT
8
1
2
EPAD
10
0.939800
20
-1.689100
41
0.050000
42
0.050000
0
CIRCLE
8
0
10
0.939800
20
-1.689100
40
0.012700
0
INSERT
8
1
2
EPAD
10
1.026009
20
-1.658530
41
0.050000
42
0.050000
0
CIRCLE
8
0
10
1.026009
20
-1.658530
40
0.012700
0
INSERT
8
1
2
EPAD
10
1.114014
20
-1.708096
41
0.050000
42
0.050000
0
CIRCLE
8
0
10
1.114014
20
-1.708096
40
0.012700
0
INSERT
8
1
2
EPAD
10
1.244600
20
-1.726827
41
0.050000
42
0.050000
0
CIRCLE
8
0
10
1.244600
20
-1.726827
40
0.012700
0
INSERT
8
1
2
EPAD
10
0.856070
20
-1.725293
41
0.050000
42
0.050000
0
CIRCLE
8
0
10
0.856070
20
-1.725293
40
0.012700
0
INSERT
8
1
2
EPAD
10
0.983970
20
-1.268510
41
0.050000
42
0.050000
0
CIRCLE
8
0
10
0.983970
20
-1.268510
40
0.012700
0
INSERT
8
1
2
EPAD
10
0.982980
20
-1.333500
41
0.050000
42
0.050000
0
CIRCLE
8
0
10
0.982980
20
-1.333500
40
0.012700
0
INSERT
8
1
2
EPAD
10
0.914400
20
-1.358900
41
0.050000
42
0.050000
0
CIRCLE
8
0
10
0.914400
20
-1.358900
40
0.012700
0
INSERT
8
1
2
EPAD
10
0.914400
20
-1.422400
41
0.050000
42
0.050000
0
CIRCLE
8
0
10
0.914400
20
-1.422400
40
0.012700
0
INSERT
8
1
2
EPAD
10
1.596190
20
-1.354465
41
0.050000
42
0.050000
0
CIRCLE
8
0
10
1.596190
20
-1.354465
40
0.012700
0
INSERT
8
1
2
EPAD
10
1.977149
20
-1.185698
41
0.050000
42
0.050000
0
CIRCLE
8
0
10
1.977149
20
-1.185698
40
0.012700
0
INSERT
8
1
2
EPAD
10
1.904231
20
-1.224182
41
0.050000
42
0.050000
0
CIRCLE
8
0
10
1.904231
20
-1.224182
40
0.012700
0
INSERT
8
1
2
EPAD
10
2.000442
20
-1.242412
41
0.050000
42
0.050000
0
CIRCLE
8
0
10
2.000442
20
-1.242412
40
0.012700
0
INSERT
8
1
2
EPAD
10
1.755280
20
-0.932246
41
0.050000
42
0.050000
0
CIRCLE
8
0
10
1.755280
20
-0.932246
40
0.012700
0
INSERT
8
1
2
EPAD
10
1.755280
20
-0.990163
41
0.050000
42
0.050000
0
CIRCLE
8
0
10
1.755280
20
-0.990163
40
0.012700
0
INSERT
8
2
2
EPAD
10
0.190500
20
-0.582500
41
0.203200
42
0.203200
0
INSERT
8
2
2
EPAD
10
0.190500
20
-0.328500
41
0.203200
42
0.203200
0
INSERT
8
2
2
EPAD
10
0.381000
20
-0.455500
41
0.203200
42
0.203200
0
INSERT
8
2
2
EPAD
10
0.190500
20
-1.344500
41
0.203200
42
0.203200
0
INSERT
8
2
2
EPAD
10
0.190500
20
-1.598500
41
0.203200
42
0.203200
0
INSERT
8
2
2
EPAD
10
0.381000
20
-1.471500
41
0.203200
42
0.203200
0
INSERT
8
2
2
EPAD
10
1.680900
20
-1.522300
41
0.203200
42
0.203200
0
INSERT
8
2
2
EPAD
10
1.871400
20
-1.649300
41
0.203200
42
0.203200
0
INSERT
8
2
2
EPAD
10
1.871400
20
-1.395300
41
0.203200
42
0.203200
0
INSERT
8
2
2
EPAD
10
1.909500
20
-0.455500
41
0.203200
42
0.203200
0
INSERT
8
2
2
EPAD
10
1.719000
20
-0.328500
41
0.203200
42
0.203200
0
INSERT
8
2
2
EPAD
10
1.909500
20
-0.201500
41
0.203200
42
0.203200
0
POLYLINE
8
3
66
1
40
0.020320
41
0.020320
0
VERTEX
8
3
10
0.300000
20
0.000000
0
VERTEX
8
3
10
0.238660
20
-0.005969
0
VERTEX
8
3
10
0.181934
20
-0.023145
0
VERTEX
8
3
10
0.130921
20
-0.050427
0
VERTEX
8
3
10
0.086719
20
-0.086719
0
VERTEX
8
3
10
0.050427
20
-0.130920
0
VERTEX
8
3
10
0.023145
20
-0.181934
0
VERTEX
8
3
10
0.005969
20
-0.238660
0
VERTEX
8
3
10
0.000000
20
-0.300000
0
SEQEND
8
3
0
POLYLINE
8
3
66
1
40
0.020320
41
0.020320
0
VERTEX
8
3
10
0.000000
20
-1.500000
0
VERTEX
8
3
10
0.005969
20
-1.561340
0
VERTEX
8
3
10
0.023145
20
-1.618066
0
VERTEX
8
3
10
0.050427
20
-1.669080
0
VERTEX
8
3
10
0.086719
20
-1.713281
0
VERTEX
8
3
10
0.130921
20
-1.749573
0
VERTEX
8
3
10
0.181934
20
-1.776855
0
VERTEX
8
3
10
0.238660
20
-1.794031
0
VERTEX
8
3
10
0.300000
20
-1.800000
0
SEQEND
8
3
0
POLYLINE
8
3
66
1
40
0.020320
41
0.020320
0
VERTEX
8
3
10
2.100000
20
-1.500000
0
VERTEX
8
3
10
2.094031
20
-1.561340
0
VERTEX
8
3
10
2.076855
20
-1.618066
0
VERTEX
8
3
10
2.049573
20
-1.669080
0
VERTEX
8
3
10
2.013281
20
-1.713281
0
VERTEX
8
3
10
1.969079
20
-1.749573
0
VERTEX
8
3
10
1.918066
20
-1.776855
0
VERTEX
8
3
10
1.861340
20
-1.794031
0
VERTEX
8
3
10
1.800000
20
-1.800000
0
SEQEND
8
3
0
POLYLINE
8
3
66
1
40
0.020320
41
0.020320
0
VERTEX
8
3
10
1.800000
20
0.000000
0
VERTEX
8
3
10
1.861340
20
-0.005969
0
VERTEX
8
3
10
1.918066
20
-0.023145
0
VERTEX
8
3
10
1.969079
20
-0.050427
0
VERTEX
8
3
10
2.013281
20
-0.086719
0
VERTEX
8
3
10
2.049573
20
-0.130920
0
VERTEX
8
3
10
2.076855
20
-0.181934
0
VERTEX
8
3
10
2.094031
20
-0.238660
0
VERTEX
8
3
10
2.100000
20
-0.300000
0
SEQEND
8
3
0
POLYLINE
8
3
66
1
40
0.020320
41
0.020320
0
VERTEX
8
3
10
1.800000
20
0.000000
0
VERTEX
8
3
10
0.300000
20
0.000000
0
SEQEND
8
3
0
POLYLINE
8
3
66
1
40
0.020320
41
0.020320
0
VERTEX
8
3
10
0.000000
20
-0.300000
0
VERTEX
8
3
10
0.000000
20
-1.500000
0
SEQEND
8
3
0
POLYLINE
8
3
66
1
40
0.020320
41
0.020320
0
VERTEX
8
3
10
0.300000
20
-1.800000
0
VERTEX
8
3
10
1.800000
20
-1.800000
0
SEQEND
8
3
0
POLYLINE
8
3
66
1
40
0.020320
41
0.020320
0
VERTEX
8
3
10
2.100000
20
-1.500000
0
VERTEX
8
3
10
2.100000
20
-0.300000
0
SEQEND
8
3
0
ENDSEC
0
EOF

