  0
SECTION
  2
HEADER
  9
$ACADVER
  1
AC1009
  9
$INSUNITS
 70
     5
 9
$MEASUREMENT
 70
    1
  0
ENDSEC
  0
SECTION
  2
TABLES
  0
TABLE
  2
LAYER
 70
     8
  0
LAYER
  2
0
 62
     7
 70
0
  6
CONTINUOUS
  0
LAYER
  2
1
 62
     1
 70
0
  6
CONTINUOUS
  0
LAYER
  2
2
 62
     2
 70
0
  6
CONTINUOUS
  0
LAYER
  2
3
 62
     3
 70
0
  6
CONTINUOUS
  0
LAYER
  2
4
 62
     4
 70
0
  6
CONTINUOUS
  0
LAYER
  2
5
 62
     5
 70
0
  6
CONTINUOUS
  0
LAYER
  2
6
 62
     6
 70
0
  6
CONTINUOUS
  0
LAYER
  2
7
 62
     7
 70
0
  6
CONTINUOUS
  0
ENDTAB
  0
TABLE
  2
STYLE
 70
     1
  0
STYLE
 70
     0
  2
STANDARD
  3
TXT
 40
0.00
 41
1.00
 42
1.00
 50
0.00
 71
     0
  0
ENDTAB
  0
ENDSEC
  0
SECTION
  2
BLOCKS
  0
BLOCK
  8
0
  2
EPAD
 70
0
 10
0.0
 20
0.0
  0
POLYLINE
  8
0
 66
1
 70
1
 40
0.5
 41
0.5
  0
VERTEX
  8
0
 10
-0.25
 20
0.0
 42
1.0
  0
VERTEX
  8
0
 10
0.25
 20
0.0
 42
1.0
  0
SEQEND
  8
0
  0
ENDBLK
  8
0
  0
BLOCK
  8
0
  2
RPAD
 70
0
 10
0.0
 20
0.0
  0
TRACE
  8
0
 10
-0.5
 20
-0.5
 11
-0.5
 21
0.5
 12
0.5
 22
-0.5
 13
0.5
 23
0.5
  0
ENDBLK
  8
0
  0
ENDSEC
0
SECTION
2
ENTITIES
0
INSERT
8
1
2
EPAD
10
1.104900
20
-0.462733
41
0.050000
42
0.050000
0
CIRCLE
8
0
10
1.104900
20
-0.462733
40
0.012700
0
INSERT
8
1
2
EPAD
10
0.729666
20
-0.404275
41
0.050000
42
0.050000
0
CIRCLE
8
0
10
0.729666
20
-0.404275
40
0.012700
0
INSERT
8
1
2
EPAD
10
0.869471
20
-0.386627
41
0.050000
42
0.050000
0
CIRCLE
8
0
10
0.869471
20
-0.386627
40
0.012700
0
INSERT
8
1
2
EPAD
10
1.138679
20
-0.089597
41
0.050000
42
0.050000
0
CIRCLE
8
0
10
1.138679
20
-0.089597
40
0.012700
0
INSERT
8
1
2
EPAD
10
2.019300
20
-0.073205
41
0.050000
42
0.050000
0
CIRCLE
8
0
10
2.019300
20
-0.073205
40
0.012700
0
INSERT
8
1
2
EPAD
10
1.168400
20
-0.892082
41
0.050000
42
0.050000
0
CIRCLE
8
0
10
1.168400
20
-0.892082
40
0.012700
0
INSERT
8
1
2
EPAD
10
0.800100
20
-0.158485
41
0.050000
42
0.050000
0
CIRCLE
8
0
10
0.800100
20
-0.158485
40
0.012700
0
INSERT
8
1
2
EPAD
10
0.857137
20
-1.052358
41
0.050000
42
0.050000
0
CIRCLE
8
0
10
0.857137
20
-1.052358
40
0.012700
0
INSERT
8
1
2
EPAD
10
1.036509
20
-1.216184
41
0.050000
42
0.050000
0
CIRCLE
8
0
10
1.036509
20
-1.216184
40
0.012700
0
INSERT
8
1
2
EPAD
10
1.431280
20
-0.695060
41
0.050000
42
0.050000
0
CIRCLE
8
0
10
1.431280
20
-0.695060
40
0.012700
0
INSERT
8
1
2
EPAD
10
1.540500
20
-0.913500
41
0.050000
42
0.050000
0
CIRCLE
8
0
10
1.540500
20
-0.913500
40
0.012700
0
INSERT
8
1
2
EPAD
10
1.540500
20
-0.850000
41
0.050000
42
0.050000
0
CIRCLE
8
0
10
1.540500
20
-0.850000
40
0.012700
0
INSERT
8
1
2
EPAD
10
1.585092
20
-0.876043
41
0.050000
42
0.050000
0
CIRCLE
8
0
10
1.585092
20
-0.876043
40
0.012700
0
INSERT
8
1
2
EPAD
10
0.790129
20
-1.386993
41
0.050000
42
0.050000
0
CIRCLE
8
0
10
0.790129
20
-1.386993
40
0.012700
0
INSERT
8
2
2
EPAD
10
0.207000
20
-0.215000
41
0.254000
42
0.254000
0
INSERT
8
2
2
EPAD
10
0.207000
20
-0.469000
41
0.254000
42
0.254000
0
INSERT
8
2
2
EPAD
10
0.461000
20
-0.342000
41
0.254000
42
0.254000
0
INSERT
8
2
2
EPAD
10
0.207000
20
-1.231000
41
0.254000
42
0.254000
0
INSERT
8
2
2
EPAD
10
0.207000
20
-1.485000
41
0.254000
42
0.254000
0
INSERT
8
2
2
EPAD
10
0.461000
20
-1.358000
41
0.254000
42
0.254000
0
INSERT
8
2
2
EPAD
10
2.493000
20
-1.231000
41
0.254000
42
0.254000
0
INSERT
8
2
2
EPAD
10
2.493000
20
-1.485000
41
0.254000
42
0.254000
0
INSERT
8
2
2
EPAD
10
2.239000
20
-1.358000
41
0.254000
42
0.254000
0
INSERT
8
2
2
EPAD
10
2.239000
20
-0.342000
41
0.254000
42
0.254000
0
INSERT
8
2
2
EPAD
10
2.493000
20
-0.215000
41
0.254000
42
0.254000
0
INSERT
8
2
2
EPAD
10
2.493000
20
-0.469000
41
0.254000
42
0.254000
0
POLYLINE
8
3
66
1
40
0.020320
41
0.020320
0
VERTEX
8
3
10
0.300000
20
0.000000
0
VERTEX
8
3
10
0.238660
20
-0.005969
0
VERTEX
8
3
10
0.181934
20
-0.023145
0
VERTEX
8
3
10
0.130921
20
-0.050427
0
VERTEX
8
3
10
0.086719
20
-0.086719
0
VERTEX
8
3
10
0.050427
20
-0.130920
0
VERTEX
8
3
10
0.023145
20
-0.181934
0
VERTEX
8
3
10
0.005969
20
-0.238660
0
VERTEX
8
3
10
0.000000
20
-0.300000
0
SEQEND
8
3
0
POLYLINE
8
3
66
1
40
0.020320
41
0.020320
0
VERTEX
8
3
10
0.300000
20
-1.700000
0
VERTEX
8
3
10
0.238660
20
-1.694031
0
VERTEX
8
3
10
0.181934
20
-1.676855
0
VERTEX
8
3
10
0.130921
20
-1.649573
0
VERTEX
8
3
10
0.086719
20
-1.613281
0
VERTEX
8
3
10
0.050427
20
-1.569080
0
VERTEX
8
3
10
0.023145
20
-1.518066
0
VERTEX
8
3
10
0.005969
20
-1.461340
0
VERTEX
8
3
10
0.000000
20
-1.400000
0
SEQEND
8
3
0
POLYLINE
8
3
66
1
40
0.020320
41
0.020320
0
VERTEX
8
3
10
2.400000
20
-1.700000
0
VERTEX
8
3
10
2.461340
20
-1.694031
0
VERTEX
8
3
10
2.518066
20
-1.676855
0
VERTEX
8
3
10
2.569079
20
-1.649573
0
VERTEX
8
3
10
2.613281
20
-1.613281
0
VERTEX
8
3
10
2.649573
20
-1.569080
0
VERTEX
8
3
10
2.676855
20
-1.518066
0
VERTEX
8
3
10
2.694031
20
-1.461340
0
VERTEX
8
3
10
2.700000
20
-1.400000
0
SEQEND
8
3
0
POLYLINE
8
3
66
1
40
0.020320
41
0.020320
0
VERTEX
8
3
10
2.400000
20
0.000000
0
VERTEX
8
3
10
2.461340
20
-0.005969
0
VERTEX
8
3
10
2.518066
20
-0.023145
0
VERTEX
8
3
10
2.569079
20
-0.050427
0
VERTEX
8
3
10
2.613281
20
-0.086719
0
VERTEX
8
3
10
2.649573
20
-0.130920
0
VERTEX
8
3
10
2.676855
20
-0.181934
0
VERTEX
8
3
10
2.694031
20
-0.238660
0
VERTEX
8
3
10
2.700000
20
-0.300000
0
SEQEND
8
3
0
POLYLINE
8
3
66
1
40
0.020320
41
0.020320
0
VERTEX
8
3
10
0.300000
20
0.000000
0
VERTEX
8
3
10
2.400000
20
0.000000
0
SEQEND
8
3
0
POLYLINE
8
3
66
1
40
0.020320
41
0.020320
0
VERTEX
8
3
10
2.700000
20
-0.300000
0
VERTEX
8
3
10
2.700000
20
-1.400000
0
SEQEND
8
3
0
POLYLINE
8
3
66
1
40
0.020320
41
0.020320
0
VERTEX
8
3
10
2.400000
20
-1.700000
0
VERTEX
8
3
10
0.300000
20
-1.700000
0
SEQEND
8
3
0
POLYLINE
8
3
66
1
40
0.020320
41
0.020320
0
VERTEX
8
3
10
0.000000
20
-1.400000
0
VERTEX
8
3
10
0.000000
20
-0.300000
0
SEQEND
8
3
0
ENDSEC
0
EOF

