  0
SECTION
  2
HEADER
  9
$ACADVER
  1
AC1009
  9
$INSUNITS
 70
     5
 9
$MEASUREMENT
 70
    1
  0
ENDSEC
  0
SECTION
  2
TABLES
  0
TABLE
  2
LAYER
 70
     8
  0
LAYER
  2
0
 62
     7
 70
0
  6
CONTINUOUS
  0
LAYER
  2
1
 62
     1
 70
0
  6
CONTINUOUS
  0
LAYER
  2
2
 62
     2
 70
0
  6
CONTINUOUS
  0
LAYER
  2
3
 62
     3
 70
0
  6
CONTINUOUS
  0
LAYER
  2
4
 62
     4
 70
0
  6
CONTINUOUS
  0
LAYER
  2
5
 62
     5
 70
0
  6
CONTINUOUS
  0
LAYER
  2
6
 62
     6
 70
0
  6
CONTINUOUS
  0
LAYER
  2
7
 62
     7
 70
0
  6
CONTINUOUS
  0
ENDTAB
  0
TABLE
  2
STYLE
 70
     1
  0
STYLE
 70
     0
  2
STANDARD
  3
TXT
 40
0.00
 41
1.00
 42
1.00
 50
0.00
 71
     0
  0
ENDTAB
  0
ENDSEC
  0
SECTION
  2
BLOCKS
  0
BLOCK
  8
0
  2
EPAD
 70
0
 10
0.0
 20
0.0
  0
POLYLINE
  8
0
 66
1
 70
1
 40
0.5
 41
0.5
  0
VERTEX
  8
0
 10
-0.25
 20
0.0
 42
1.0
  0
VERTEX
  8
0
 10
0.25
 20
0.0
 42
1.0
  0
SEQEND
  8
0
  0
ENDBLK
  8
0
  0
BLOCK
  8
0
  2
RPAD
 70
0
 10
0.0
 20
0.0
  0
TRACE
  8
0
 10
-0.5
 20
-0.5
 11
-0.5
 21
0.5
 12
0.5
 22
-0.5
 13
0.5
 23
0.5
  0
ENDBLK
  8
0
  0
ENDSEC
0
SECTION
2
ENTITIES
0
INSERT
8
1
2
EPAD
10
0.682270
20
-0.793427
41
0.050000
42
0.050000
0
CIRCLE
8
0
10
0.682270
20
-0.793427
40
0.012700
0
INSERT
8
1
2
EPAD
10
1.028700
20
-0.877700
41
0.050000
42
0.050000
0
CIRCLE
8
0
10
1.028700
20
-0.877700
40
0.012700
0
INSERT
8
2
2
EPAD
10
0.174500
20
-0.207000
41
0.254000
42
0.254000
0
INSERT
8
2
2
EPAD
10
1.000000
20
-0.207000
41
0.254000
42
0.254000
0
INSERT
8
2
2
EPAD
10
0.174500
20
-1.286500
41
0.254000
42
0.254000
0
INSERT
8
2
2
EPAD
10
1.000000
20
-1.286500
41
0.254000
42
0.254000
0
POLYLINE
8
3
66
1
40
0.020320
41
0.020320
0
VERTEX
8
3
10
0.000000
20
-1.300000
0
VERTEX
8
3
10
0.003980
20
-1.340894
0
VERTEX
8
3
10
0.015430
20
-1.378711
0
VERTEX
8
3
10
0.033618
20
-1.412720
0
VERTEX
8
3
10
0.057813
20
-1.442188
0
VERTEX
8
3
10
0.087280
20
-1.466382
0
VERTEX
8
3
10
0.121289
20
-1.484570
0
VERTEX
8
3
10
0.159106
20
-1.496021
0
VERTEX
8
3
10
0.200000
20
-1.500000
0
SEQEND
8
3
0
POLYLINE
8
3
66
1
40
0.020320
41
0.020320
0
VERTEX
8
3
10
1.000000
20
-1.500000
0
VERTEX
8
3
10
1.040894
20
-1.496021
0
VERTEX
8
3
10
1.078711
20
-1.484570
0
VERTEX
8
3
10
1.112720
20
-1.466382
0
VERTEX
8
3
10
1.142188
20
-1.442188
0
VERTEX
8
3
10
1.166382
20
-1.412720
0
VERTEX
8
3
10
1.184570
20
-1.378711
0
VERTEX
8
3
10
1.196020
20
-1.340894
0
VERTEX
8
3
10
1.200000
20
-1.300000
0
SEQEND
8
3
0
POLYLINE
8
3
66
1
40
0.020320
41
0.020320
0
VERTEX
8
3
10
1.000000
20
0.000000
0
VERTEX
8
3
10
1.040894
20
-0.003979
0
VERTEX
8
3
10
1.078711
20
-0.015430
0
VERTEX
8
3
10
1.112720
20
-0.033618
0
VERTEX
8
3
10
1.142188
20
-0.057813
0
VERTEX
8
3
10
1.166382
20
-0.087280
0
VERTEX
8
3
10
1.184570
20
-0.121289
0
VERTEX
8
3
10
1.196020
20
-0.159106
0
VERTEX
8
3
10
1.200000
20
-0.200000
0
SEQEND
8
3
0
POLYLINE
8
3
66
1
40
0.020320
41
0.020320
0
VERTEX
8
3
10
0.000000
20
-0.200000
0
VERTEX
8
3
10
0.003980
20
-0.159106
0
VERTEX
8
3
10
0.015430
20
-0.121289
0
VERTEX
8
3
10
0.033618
20
-0.087280
0
VERTEX
8
3
10
0.057813
20
-0.057813
0
VERTEX
8
3
10
0.087280
20
-0.033618
0
VERTEX
8
3
10
0.121289
20
-0.015430
0
VERTEX
8
3
10
0.159106
20
-0.003979
0
VERTEX
8
3
10
0.200000
20
0.000000
0
SEQEND
8
3
0
POLYLINE
8
3
66
1
40
0.020320
41
0.020320
0
VERTEX
8
3
10
0.000000
20
-0.200000
0
VERTEX
8
3
10
0.000000
20
-1.300000
0
SEQEND
8
3
0
POLYLINE
8
3
66
1
40
0.020320
41
0.020320
0
VERTEX
8
3
10
0.200000
20
-1.500000
0
VERTEX
8
3
10
1.000000
20
-1.500000
0
SEQEND
8
3
0
POLYLINE
8
3
66
1
40
0.020320
41
0.020320
0
VERTEX
8
3
10
1.200000
20
-1.300000
0
VERTEX
8
3
10
1.200000
20
-0.200000
0
SEQEND
8
3
0
POLYLINE
8
3
66
1
40
0.020320
41
0.020320
0
VERTEX
8
3
10
1.000000
20
0.000000
0
VERTEX
8
3
10
0.200000
20
0.000000
0
SEQEND
8
3
0
ENDSEC
0
EOF

