  0
SECTION
  2
HEADER
  9
$ACADVER
  1
AC1009
  9
$INSUNITS
 70
     5
 9
$MEASUREMENT
 70
    1
  0
ENDSEC
  0
SECTION
  2
TABLES
  0
TABLE
  2
LAYER
 70
     8
  0
LAYER
  2
0
 62
     7
 70
0
  6
CONTINUOUS
  0
LAYER
  2
1
 62
     1
 70
0
  6
CONTINUOUS
  0
LAYER
  2
2
 62
     2
 70
0
  6
CONTINUOUS
  0
LAYER
  2
3
 62
     3
 70
0
  6
CONTINUOUS
  0
LAYER
  2
4
 62
     4
 70
0
  6
CONTINUOUS
  0
LAYER
  2
5
 62
     5
 70
0
  6
CONTINUOUS
  0
LAYER
  2
6
 62
     6
 70
0
  6
CONTINUOUS
  0
LAYER
  2
7
 62
     7
 70
0
  6
CONTINUOUS
  0
ENDTAB
  0
TABLE
  2
STYLE
 70
     1
  0
STYLE
 70
     0
  2
STANDARD
  3
TXT
 40
0.00
 41
1.00
 42
1.00
 50
0.00
 71
     0
  0
ENDTAB
  0
ENDSEC
  0
SECTION
  2
BLOCKS
  0
BLOCK
  8
0
  2
EPAD
 70
0
 10
0.0
 20
0.0
  0
POLYLINE
  8
0
 66
1
 70
1
 40
0.5
 41
0.5
  0
VERTEX
  8
0
 10
-0.25
 20
0.0
 42
1.0
  0
VERTEX
  8
0
 10
0.25
 20
0.0
 42
1.0
  0
SEQEND
  8
0
  0
ENDBLK
  8
0
  0
BLOCK
  8
0
  2
RPAD
 70
0
 10
0.0
 20
0.0
  0
TRACE
  8
0
 10
-0.5
 20
-0.5
 11
-0.5
 21
0.5
 12
0.5
 22
-0.5
 13
0.5
 23
0.5
  0
ENDBLK
  8
0
  0
ENDSEC
0
SECTION
2
ENTITIES
0
INSERT
8
1
2
EPAD
10
0.233010
20
-0.366006
41
0.050000
42
0.050000
0
CIRCLE
8
0
10
0.233010
20
-0.366006
40
0.012700
0
INSERT
8
1
2
EPAD
10
0.232128
20
-0.420687
41
0.050000
42
0.050000
0
CIRCLE
8
0
10
0.232128
20
-0.420687
40
0.012700
0
INSERT
8
1
2
EPAD
10
0.348545
20
-0.306917
41
0.050000
42
0.050000
0
CIRCLE
8
0
10
0.348545
20
-0.306917
40
0.012700
0
INSERT
8
1
2
EPAD
10
0.288573
20
-0.306917
41
0.050000
42
0.050000
0
CIRCLE
8
0
10
0.288573
20
-0.306917
40
0.012700
0
INSERT
8
1
2
EPAD
10
1.130054
20
-0.587466
41
0.050000
42
0.050000
0
CIRCLE
8
0
10
1.130054
20
-0.587466
40
0.012700
0
INSERT
8
1
2
EPAD
10
0.910515
20
-0.840268
41
0.050000
42
0.050000
0
CIRCLE
8
0
10
0.910515
20
-0.840268
40
0.012700
0
INSERT
8
1
2
EPAD
10
1.038475
20
-0.831708
41
0.050000
42
0.050000
0
CIRCLE
8
0
10
1.038475
20
-0.831708
40
0.012700
0
INSERT
8
1
2
EPAD
10
0.766690
20
-0.526200
41
0.050000
42
0.050000
0
CIRCLE
8
0
10
0.766690
20
-0.526200
40
0.012700
0
INSERT
8
1
2
EPAD
10
0.765831
20
-0.433320
41
0.050000
42
0.050000
0
CIRCLE
8
0
10
0.765831
20
-0.433320
40
0.012700
0
INSERT
8
1
2
EPAD
10
0.841652
20
-0.433320
41
0.050000
42
0.050000
0
CIRCLE
8
0
10
0.841652
20
-0.433320
40
0.012700
0
INSERT
8
1
2
EPAD
10
0.840448
20
-0.526591
41
0.050000
42
0.050000
0
CIRCLE
8
0
10
0.840448
20
-0.526591
40
0.012700
0
INSERT
8
1
2
EPAD
10
0.766432
20
-0.646941
41
0.050000
42
0.050000
0
CIRCLE
8
0
10
0.766432
20
-0.646941
40
0.012700
0
INSERT
8
1
2
EPAD
10
0.856094
20
-0.646941
41
0.050000
42
0.050000
0
CIRCLE
8
0
10
0.856094
20
-0.646941
40
0.012700
0
INSERT
8
1
2
EPAD
10
0.679178
20
-0.648145
41
0.050000
42
0.050000
0
CIRCLE
8
0
10
0.679178
20
-0.648145
40
0.012700
0
INSERT
8
1
2
EPAD
10
0.677373
20
-0.526591
41
0.050000
42
0.050000
0
CIRCLE
8
0
10
0.677373
20
-0.526591
40
0.012700
0
INSERT
8
1
2
EPAD
10
0.678576
20
-0.433922
41
0.050000
42
0.050000
0
CIRCLE
8
0
10
0.678576
20
-0.433922
40
0.012700
0
INSERT
8
2
2
EPAD
10
0.138750
20
-0.182500
41
0.177800
42
0.177800
0
INSERT
8
2
2
EPAD
10
0.138750
20
-0.817500
41
0.177800
42
0.177800
0
INSERT
8
2
2
EPAD
10
2.348550
20
-0.817500
41
0.177800
42
0.177800
0
INSERT
8
2
2
EPAD
10
2.348550
20
-0.182500
41
0.177800
42
0.177800
0
POLYLINE
8
3
66
1
40
0.020320
41
0.020320
0
VERTEX
8
3
10
0.250000
20
0.000000
0
VERTEX
8
3
10
0.198883
20
-0.004974
0
VERTEX
8
3
10
0.151611
20
-0.019287
0
VERTEX
8
3
10
0.109100
20
-0.042023
0
VERTEX
8
3
10
0.072266
20
-0.072266
0
VERTEX
8
3
10
0.042023
20
-0.109100
0
VERTEX
8
3
10
0.019287
20
-0.151611
0
VERTEX
8
3
10
0.004974
20
-0.198883
0
VERTEX
8
3
10
0.000000
20
-0.250000
0
SEQEND
8
3
0
POLYLINE
8
3
66
1
40
0.020320
41
0.020320
0
VERTEX
8
3
10
0.000000
20
-0.750000
0
VERTEX
8
3
10
0.004974
20
-0.801117
0
VERTEX
8
3
10
0.019287
20
-0.848389
0
VERTEX
8
3
10
0.042023
20
-0.890900
0
VERTEX
8
3
10
0.072266
20
-0.927734
0
VERTEX
8
3
10
0.109100
20
-0.957977
0
VERTEX
8
3
10
0.151611
20
-0.980713
0
VERTEX
8
3
10
0.198883
20
-0.995026
0
VERTEX
8
3
10
0.250000
20
-1.000000
0
SEQEND
8
3
0
POLYLINE
8
3
66
1
40
0.020320
41
0.020320
0
VERTEX
8
3
10
2.500000
20
-0.750000
0
VERTEX
8
3
10
2.495026
20
-0.801117
0
VERTEX
8
3
10
2.480713
20
-0.848389
0
VERTEX
8
3
10
2.457977
20
-0.890900
0
VERTEX
8
3
10
2.427734
20
-0.927734
0
VERTEX
8
3
10
2.390900
20
-0.957977
0
VERTEX
8
3
10
2.348389
20
-0.980713
0
VERTEX
8
3
10
2.301117
20
-0.995026
0
VERTEX
8
3
10
2.250000
20
-1.000000
0
SEQEND
8
3
0
POLYLINE
8
3
66
1
40
0.020320
41
0.020320
0
VERTEX
8
3
10
2.500000
20
-0.250000
0
VERTEX
8
3
10
2.495026
20
-0.198883
0
VERTEX
8
3
10
2.480713
20
-0.151611
0
VERTEX
8
3
10
2.457977
20
-0.109100
0
VERTEX
8
3
10
2.427734
20
-0.072266
0
VERTEX
8
3
10
2.390900
20
-0.042023
0
VERTEX
8
3
10
2.348389
20
-0.019287
0
VERTEX
8
3
10
2.301117
20
-0.004974
0
VERTEX
8
3
10
2.250000
20
0.000000
0
VERTEX
8
3
10
0.250000
20
0.000000
0
SEQEND
8
3
0
POLYLINE
8
3
66
1
40
0.020320
41
0.020320
0
VERTEX
8
3
10
0.000000
20
-0.250000
0
VERTEX
8
3
10
0.000000
20
-0.750000
0
SEQEND
8
3
0
POLYLINE
8
3
66
1
40
0.020320
41
0.020320
0
VERTEX
8
3
10
0.250000
20
-1.000000
0
VERTEX
8
3
10
2.250000
20
-1.000000
0
SEQEND
8
3
0
POLYLINE
8
3
66
1
40
0.020320
41
0.020320
0
VERTEX
8
3
10
2.500000
20
-0.750000
0
VERTEX
8
3
10
2.500000
20
-0.250000
0
SEQEND
8
3
0
ENDSEC
0
EOF

