  0
SECTION
  2
HEADER
  9
$ACADVER
  1
AC1009
  9
$INSUNITS
 70
     5
 9
$MEASUREMENT
 70
    1
  0
ENDSEC
  0
SECTION
  2
TABLES
  0
TABLE
  2
LAYER
 70
     8
  0
LAYER
  2
0
 62
     7
 70
0
  6
CONTINUOUS
  0
LAYER
  2
1
 62
     1
 70
0
  6
CONTINUOUS
  0
LAYER
  2
2
 62
     2
 70
0
  6
CONTINUOUS
  0
LAYER
  2
3
 62
     3
 70
0
  6
CONTINUOUS
  0
LAYER
  2
4
 62
     4
 70
0
  6
CONTINUOUS
  0
LAYER
  2
5
 62
     5
 70
0
  6
CONTINUOUS
  0
LAYER
  2
6
 62
     6
 70
0
  6
CONTINUOUS
  0
LAYER
  2
7
 62
     7
 70
0
  6
CONTINUOUS
  0
ENDTAB
  0
TABLE
  2
STYLE
 70
     1
  0
STYLE
 70
     0
  2
STANDARD
  3
TXT
 40
0.00
 41
1.00
 42
1.00
 50
0.00
 71
     0
  0
ENDTAB
  0
ENDSEC
  0
SECTION
  2
BLOCKS
  0
BLOCK
  8
0
  2
EPAD
 70
0
 10
0.0
 20
0.0
  0
POLYLINE
  8
0
 66
1
 70
1
 40
0.5
 41
0.5
  0
VERTEX
  8
0
 10
-0.25
 20
0.0
 42
1.0
  0
VERTEX
  8
0
 10
0.25
 20
0.0
 42
1.0
  0
SEQEND
  8
0
  0
ENDBLK
  8
0
  0
BLOCK
  8
0
  2
RPAD
 70
0
 10
0.0
 20
0.0
  0
TRACE
  8
0
 10
-0.5
 20
-0.5
 11
-0.5
 21
0.5
 12
0.5
 22
-0.5
 13
0.5
 23
0.5
  0
ENDBLK
  8
0
  0
ENDSEC
0
SECTION
2
ENTITIES
0
INSERT
8
1
2
EPAD
10
0.507579
20
-0.673302
41
0.050000
42
0.050000
0
CIRCLE
8
0
10
0.507579
20
-0.673302
40
0.025400
0
INSERT
8
1
2
EPAD
10
0.719246
20
-0.529557
41
0.050000
42
0.050000
0
CIRCLE
8
0
10
0.719246
20
-0.529557
40
0.025400
0
INSERT
8
1
2
EPAD
10
0.948309
20
-0.231408
41
0.050000
42
0.050000
0
CIRCLE
8
0
10
0.948309
20
-0.231408
40
0.025400
0
INSERT
8
1
2
EPAD
10
0.119838
20
-0.096651
41
0.050000
42
0.050000
0
CIRCLE
8
0
10
0.119838
20
-0.096651
40
0.025400
0
INSERT
8
1
2
EPAD
10
0.389509
20
-0.149524
41
0.050000
42
0.050000
0
CIRCLE
8
0
10
0.389509
20
-0.149524
40
0.025400
0
INSERT
8
1
2
EPAD
10
0.116963
20
-0.273539
41
0.050000
42
0.050000
0
CIRCLE
8
0
10
0.116963
20
-0.273539
40
0.025400
0
INSERT
8
1
2
EPAD
10
0.170645
20
-0.414442
41
0.050000
42
0.050000
0
CIRCLE
8
0
10
0.170645
20
-0.414442
40
0.025400
0
INSERT
8
1
2
EPAD
10
0.942585
20
-0.330850
41
0.050000
42
0.050000
0
CIRCLE
8
0
10
0.942585
20
-0.330850
40
0.025400
0
INSERT
8
1
2
EPAD
10
0.412042
20
-0.332650
41
0.050000
42
0.050000
0
CIRCLE
8
0
10
0.412042
20
-0.332650
40
0.025400
0
INSERT
8
1
2
EPAD
10
0.581502
20
-0.149497
41
0.050000
42
0.050000
0
CIRCLE
8
0
10
0.581502
20
-0.149497
40
0.025400
0
INSERT
8
1
2
EPAD
10
0.028672
20
-0.580208
41
0.050000
42
0.050000
0
CIRCLE
8
0
10
0.028672
20
-0.580208
40
0.025400
0
INSERT
8
1
2
EPAD
10
0.037616
20
-0.120068
41
0.050000
42
0.050000
0
CIRCLE
8
0
10
0.037616
20
-0.120068
40
0.025400
0
POLYLINE
8
2
66
1
40
0.020320
41
0.020320
0
VERTEX
8
2
10
-0.032131
20
-0.733935
0
VERTEX
8
2
10
1.317869
20
-0.733935
0
VERTEX
8
2
10
1.317869
20
-0.033935
0
VERTEX
8
2
10
-0.032131
20
-0.033935
0
VERTEX
8
2
10
-0.032131
20
-0.733935
0
SEQEND
8
2
0
ENDSEC
0
EOF

