  0
SECTION
  2
HEADER
  9
$ACADVER
  1
AC1009
  9
$INSUNITS
 70
     1
 9
$MEASUREMENT
 70
    0
  0
ENDSEC
  0
SECTION
  2
TABLES
  0
TABLE
  2
LAYER
 70
     8
  0
LAYER
  2
0
 62
     7
 70
0
  6
CONTINUOUS
  0
LAYER
  2
1
 62
     1
 70
0
  6
CONTINUOUS
  0
LAYER
  2
2
 62
     2
 70
0
  6
CONTINUOUS
  0
LAYER
  2
3
 62
     3
 70
0
  6
CONTINUOUS
  0
LAYER
  2
4
 62
     4
 70
0
  6
CONTINUOUS
  0
LAYER
  2
5
 62
     5
 70
0
  6
CONTINUOUS
  0
LAYER
  2
6
 62
     6
 70
0
  6
CONTINUOUS
  0
LAYER
  2
7
 62
     7
 70
0
  6
CONTINUOUS
  0
ENDTAB
  0
TABLE
  2
STYLE
 70
     1
  0
STYLE
 70
     0
  2
STANDARD
  3
TXT
 40
0.00
 41
1.00
 42
1.00
 50
0.00
 71
     0
  0
ENDTAB
  0
ENDSEC
  0
SECTION
  2
BLOCKS
  0
BLOCK
  8
0
  2
EPAD
 70
0
 10
0.0
 20
0.0
  0
POLYLINE
  8
0
 66
1
 70
1
 40
0.5
 41
0.5
  0
VERTEX
  8
0
 10
-0.25
 20
0.0
 42
1.0
  0
VERTEX
  8
0
 10
0.25
 20
0.0
 42
1.0
  0
SEQEND
  8
0
  0
ENDBLK
  8
0
  0
BLOCK
  8
0
  2
RPAD
 70
0
 10
0.0
 20
0.0
  0
TRACE
  8
0
 10
-0.5
 20
-0.5
 11
-0.5
 21
0.5
 12
0.5
 22
-0.5
 13
0.5
 23
0.5
  0
ENDBLK
  8
0
  0
ENDSEC
0
SECTION
2
ENTITIES
0
INSERT
8
1
2
EPAD
10
0.480710
20
-0.379370
41
0.019685
42
0.019685
0
CIRCLE
8
0
10
0.480710
20
-0.379370
40
0.010000
0
INSERT
8
1
2
EPAD
10
0.364952
20
-0.320885
41
0.019685
42
0.019685
0
CIRCLE
8
0
10
0.364952
20
-0.320885
40
0.010000
0
INSERT
8
1
2
EPAD
10
0.743740
20
-0.411782
41
0.019685
42
0.019685
0
CIRCLE
8
0
10
0.743740
20
-0.411782
40
0.010000
0
INSERT
8
1
2
EPAD
10
0.520814
20
-0.104274
41
0.019685
42
0.019685
0
CIRCLE
8
0
10
0.520814
20
-0.104274
40
0.010000
0
INSERT
8
1
2
EPAD
10
0.369917
20
-0.182165
41
0.019685
42
0.019685
0
CIRCLE
8
0
10
0.369917
20
-0.182165
40
0.010000
0
INSERT
8
1
2
EPAD
10
0.230211
20
-0.158472
41
0.019685
42
0.019685
0
CIRCLE
8
0
10
0.230211
20
-0.158472
40
0.010000
0
INSERT
8
1
2
EPAD
10
0.199312
20
-0.417074
41
0.019685
42
0.019685
0
CIRCLE
8
0
10
0.199312
20
-0.417074
40
0.010000
0
INSERT
8
1
2
EPAD
10
0.233285
20
-0.250612
41
0.019685
42
0.019685
0
CIRCLE
8
0
10
0.233285
20
-0.250612
40
0.010000
0
INSERT
8
1
2
EPAD
10
0.487156
20
-0.281460
41
0.019685
42
0.019685
0
CIRCLE
8
0
10
0.487156
20
-0.281460
40
0.010000
0
INSERT
8
1
2
EPAD
10
0.301219
20
-0.126118
41
0.019685
42
0.019685
0
CIRCLE
8
0
10
0.301219
20
-0.126118
40
0.010000
0
INSERT
8
1
2
EPAD
10
0.273740
20
-0.099370
41
0.019685
42
0.019685
0
CIRCLE
8
0
10
0.273740
20
-0.099370
40
0.010000
0
INSERT
8
1
2
EPAD
10
0.511935
20
-0.218815
41
0.019685
42
0.019685
0
CIRCLE
8
0
10
0.511935
20
-0.218815
40
0.010000
0
INSERT
8
1
2
EPAD
10
0.323740
20
-0.059370
41
0.019685
42
0.019685
0
CIRCLE
8
0
10
0.323740
20
-0.059370
40
0.010000
0
INSERT
8
1
2
EPAD
10
0.417730
20
-0.136037
41
0.019685
42
0.019685
0
CIRCLE
8
0
10
0.417730
20
-0.136037
40
0.010000
0
INSERT
8
1
2
EPAD
10
0.376414
20
-0.030083
41
0.019685
42
0.019685
0
CIRCLE
8
0
10
0.376414
20
-0.030083
40
0.010000
0
INSERT
8
1
2
EPAD
10
0.699296
20
-0.047603
41
0.019685
42
0.019685
0
CIRCLE
8
0
10
0.699296
20
-0.047603
40
0.010000
0
INSERT
8
1
2
EPAD
10
0.564851
20
-0.170135
41
0.019685
42
0.019685
0
CIRCLE
8
0
10
0.564851
20
-0.170135
40
0.010000
0
INSERT
8
1
2
EPAD
10
0.617126
20
-0.103598
41
0.019685
42
0.019685
0
CIRCLE
8
0
10
0.617126
20
-0.103598
40
0.010000
0
INSERT
8
1
2
EPAD
10
0.618740
20
-0.199370
41
0.019685
42
0.019685
0
CIRCLE
8
0
10
0.618740
20
-0.199370
40
0.010000
0
INSERT
8
1
2
EPAD
10
0.712874
20
-0.212598
41
0.019685
42
0.019685
0
CIRCLE
8
0
10
0.712874
20
-0.212598
40
0.010000
0
INSERT
8
1
2
EPAD
10
0.717874
20
-0.252598
41
0.019685
42
0.019685
0
CIRCLE
8
0
10
0.717874
20
-0.252598
40
0.010000
0
INSERT
8
1
2
EPAD
10
0.621777
20
-0.251768
41
0.019685
42
0.019685
0
CIRCLE
8
0
10
0.621777
20
-0.251768
40
0.010000
0
INSERT
8
2
2
EPAD
10
0.078740
20
-0.068898
41
0.082717
42
0.082717
0
CIRCLE
8
0
10
0.078740
20
-0.068898
40
0.010000
0
INSERT
8
2
2
EPAD
10
0.866142
20
-0.068898
41
0.082717
42
0.082717
0
CIRCLE
8
0
10
0.866142
20
-0.068898
40
0.010000
0
INSERT
8
2
2
EPAD
10
0.072441
20
-0.485100
41
0.070000
42
0.070000
0
INSERT
8
2
2
EPAD
10
0.172441
20
-0.485100
41
0.070000
42
0.070000
0
INSERT
8
2
2
EPAD
10
0.272441
20
-0.485100
41
0.070000
42
0.070000
0
INSERT
8
2
2
EPAD
10
0.372441
20
-0.485100
41
0.070000
42
0.070000
0
INSERT
8
2
2
EPAD
10
0.472441
20
-0.485100
41
0.070000
42
0.070000
0
INSERT
8
2
2
EPAD
10
0.572441
20
-0.485100
41
0.070000
42
0.070000
0
INSERT
8
2
2
EPAD
10
0.672441
20
-0.485100
41
0.070000
42
0.070000
0
INSERT
8
2
2
EPAD
10
0.772441
20
-0.485100
41
0.070000
42
0.070000
0
INSERT
8
2
2
EPAD
10
0.872441
20
-0.485100
41
0.070000
42
0.070000
0
POLYLINE
8
3
66
1
40
0.008000
41
0.008000
0
VERTEX
8
3
10
0.098425
20
0.000000
0
VERTEX
8
3
10
0.078300
20
-0.001958
0
VERTEX
8
3
10
0.059689
20
-0.007593
0
VERTEX
8
3
10
0.042953
20
-0.016544
0
VERTEX
8
3
10
0.028451
20
-0.028451
0
VERTEX
8
3
10
0.016544
20
-0.042953
0
VERTEX
8
3
10
0.007593
20
-0.059689
0
VERTEX
8
3
10
0.001958
20
-0.078300
0
VERTEX
8
3
10
0.000000
20
-0.098425
0
SEQEND
8
3
0
POLYLINE
8
3
66
1
40
0.008000
41
0.008000
0
VERTEX
8
3
10
0.846457
20
0.000000
0
VERTEX
8
3
10
0.866581
20
-0.001958
0
VERTEX
8
3
10
0.885193
20
-0.007593
0
VERTEX
8
3
10
0.901929
20
-0.016544
0
VERTEX
8
3
10
0.916431
20
-0.028451
0
VERTEX
8
3
10
0.928337
20
-0.042953
0
VERTEX
8
3
10
0.937289
20
-0.059689
0
VERTEX
8
3
10
0.942924
20
-0.078300
0
VERTEX
8
3
10
0.944882
20
-0.098425
0
SEQEND
8
3
0
POLYLINE
8
3
66
1
40
0.008000
41
0.008000
0
VERTEX
8
3
10
0.098425
20
-0.570866
0
VERTEX
8
3
10
0.078300
20
-0.568908
0
VERTEX
8
3
10
0.059689
20
-0.563273
0
VERTEX
8
3
10
0.042953
20
-0.554322
0
VERTEX
8
3
10
0.028451
20
-0.542415
0
VERTEX
8
3
10
0.016544
20
-0.527913
0
VERTEX
8
3
10
0.007593
20
-0.511177
0
VERTEX
8
3
10
0.001958
20
-0.492566
0
VERTEX
8
3
10
0.000000
20
-0.472441
0
SEQEND
8
3
0
POLYLINE
8
3
66
1
40
0.008000
41
0.008000
0
VERTEX
8
3
10
0.846457
20
-0.570866
0
VERTEX
8
3
10
0.866581
20
-0.568908
0
VERTEX
8
3
10
0.885193
20
-0.563273
0
VERTEX
8
3
10
0.901929
20
-0.554322
0
VERTEX
8
3
10
0.916431
20
-0.542415
0
VERTEX
8
3
10
0.928337
20
-0.527913
0
VERTEX
8
3
10
0.937289
20
-0.511177
0
VERTEX
8
3
10
0.942924
20
-0.492566
0
VERTEX
8
3
10
0.944882
20
-0.472441
0
SEQEND
8
3
0
POLYLINE
8
3
66
1
40
0.008000
41
0.008000
0
VERTEX
8
3
10
0.846457
20
-0.570866
0
VERTEX
8
3
10
0.098425
20
-0.570866
0
SEQEND
8
3
0
POLYLINE
8
3
66
1
40
0.008000
41
0.008000
0
VERTEX
8
3
10
0.000000
20
-0.472441
0
VERTEX
8
3
10
0.000000
20
-0.098425
0
SEQEND
8
3
0
POLYLINE
8
3
66
1
40
0.008000
41
0.008000
0
VERTEX
8
3
10
0.098425
20
0.000000
0
VERTEX
8
3
10
0.846457
20
0.000000
0
SEQEND
8
3
0
POLYLINE
8
3
66
1
40
0.008000
41
0.008000
0
VERTEX
8
3
10
0.944882
20
-0.098425
0
VERTEX
8
3
10
0.944882
20
-0.472441
0
SEQEND
8
3
0
ENDSEC
0
EOF

