  0
SECTION
  2
HEADER
  9
$ACADVER
  1
AC1009
  9
$INSUNITS
 70
     5
 9
$MEASUREMENT
 70
    1
  0
ENDSEC
  0
SECTION
  2
TABLES
  0
TABLE
  2
LAYER
 70
     8
  0
LAYER
  2
0
 62
     7
 70
0
  6
CONTINUOUS
  0
LAYER
  2
1
 62
     1
 70
0
  6
CONTINUOUS
  0
LAYER
  2
2
 62
     2
 70
0
  6
CONTINUOUS
  0
LAYER
  2
3
 62
     3
 70
0
  6
CONTINUOUS
  0
LAYER
  2
4
 62
     4
 70
0
  6
CONTINUOUS
  0
LAYER
  2
5
 62
     5
 70
0
  6
CONTINUOUS
  0
LAYER
  2
6
 62
     6
 70
0
  6
CONTINUOUS
  0
LAYER
  2
7
 62
     7
 70
0
  6
CONTINUOUS
  0
ENDTAB
  0
TABLE
  2
STYLE
 70
     1
  0
STYLE
 70
     0
  2
STANDARD
  3
TXT
 40
0.00
 41
1.00
 42
1.00
 50
0.00
 71
     0
  0
ENDTAB
  0
ENDSEC
  0
SECTION
  2
BLOCKS
  0
BLOCK
  8
0
  2
EPAD
 70
0
 10
0.0
 20
0.0
  0
POLYLINE
  8
0
 66
1
 70
1
 40
0.5
 41
0.5
  0
VERTEX
  8
0
 10
-0.25
 20
0.0
 42
1.0
  0
VERTEX
  8
0
 10
0.25
 20
0.0
 42
1.0
  0
SEQEND
  8
0
  0
ENDBLK
  8
0
  0
BLOCK
  8
0
  2
RPAD
 70
0
 10
0.0
 20
0.0
  0
TRACE
  8
0
 10
-0.5
 20
-0.5
 11
-0.5
 21
0.5
 12
0.5
 22
-0.5
 13
0.5
 23
0.5
  0
ENDBLK
  8
0
  0
ENDSEC
0
SECTION
2
ENTITIES
0
INSERT
8
1
2
EPAD
10
0.922825
20
-0.186063
41
0.050000
42
0.050000
0
INSERT
8
1
2
EPAD
10
0.754270
20
-0.302591
41
0.050000
42
0.050000
0
INSERT
8
1
2
EPAD
10
1.018687
20
-0.602380
41
0.050000
42
0.050000
0
INSERT
8
1
2
EPAD
10
0.742628
20
-0.386480
41
0.050000
42
0.050000
0
INSERT
8
1
2
EPAD
10
0.425440
20
-0.299200
41
0.050000
42
0.050000
0
INSERT
8
1
2
EPAD
10
1.208655
20
-0.601869
41
0.050000
42
0.050000
0
INSERT
8
1
2
EPAD
10
1.089922
20
-0.063008
41
0.050000
42
0.050000
0
INSERT
8
1
2
EPAD
10
1.009844
20
-0.176078
41
0.050000
42
0.050000
0
INSERT
8
1
2
EPAD
10
0.626100
20
-0.499860
41
0.050000
42
0.050000
0
INSERT
8
1
2
EPAD
10
0.421382
20
-0.196809
41
0.050000
42
0.050000
0
INSERT
8
1
2
EPAD
10
0.472210
20
-0.636972
41
0.050000
42
0.050000
0
POLYLINE
8
2
66
1
40
0.010160
41
0.010160
0
VERTEX
8
2
10
1.350000
20
-0.250000
0
VERTEX
8
2
10
1.329849
20
-0.252032
0
VERTEX
8
2
10
1.311079
20
-0.257860
0
VERTEX
8
2
10
1.279293
20
-0.279293
0
VERTEX
8
2
10
1.257860
20
-0.311079
0
VERTEX
8
2
10
1.252032
20
-0.329849
0
VERTEX
8
2
10
1.250000
20
-0.350000
0
VERTEX
8
2
10
1.252032
20
-0.370151
0
VERTEX
8
2
10
1.257860
20
-0.388921
0
VERTEX
8
2
10
1.279293
20
-0.420708
0
VERTEX
8
2
10
1.311079
20
-0.442140
0
VERTEX
8
2
10
1.329849
20
-0.447968
0
VERTEX
8
2
10
1.350000
20
-0.450000
0
SEQEND
8
2
0
POLYLINE
8
2
66
1
40
0.010160
41
0.010160
0
VERTEX
8
2
10
0.000000
20
0.000000
0
VERTEX
8
2
10
0.000000
20
-0.700000
0
VERTEX
8
2
10
1.350000
20
-0.700000
0
VERTEX
8
2
10
1.350000
20
-0.450000
0
SEQEND
8
2
0
POLYLINE
8
2
66
1
40
0.010160
41
0.010160
0
VERTEX
8
2
10
1.350000
20
-0.250000
0
VERTEX
8
2
10
1.350000
20
0.000000
0
VERTEX
8
2
10
0.000000
20
0.000000
0
SEQEND
8
2
0
ENDSEC
0
EOF

