  0
SECTION
  2
HEADER
  9
$ACADVER
  1
AC1009
  9
$INSUNITS
 70
     1
  0
ENDSEC
  0
SECTION
  2
TABLES
  0
TABLE
  2
LAYER
 70
     8
  0
LAYER
  2
0
 62
     7
 70
0
  6
CONTINUOUS
  0
LAYER
  2
1
 62
     1
 70
0
  6
CONTINUOUS
  0
LAYER
  2
2
 62
     2
 70
0
  6
CONTINUOUS
  0
LAYER
  2
3
 62
     3
 70
0
  6
CONTINUOUS
  0
LAYER
  2
4
 62
     4
 70
0
  6
CONTINUOUS
  0
LAYER
  2
5
 62
     5
 70
0
  6
CONTINUOUS
  0
LAYER
  2
6
 62
     6
 70
0
  6
CONTINUOUS
  0
LAYER
  2
7
 62
     7
 70
0
  6
CONTINUOUS
  0
ENDTAB
  0
TABLE
  2
STYLE
 70
     1
  0
STYLE
 70
     0
  2
STANDARD
  3
TXT
 40
0.00
 41
1.00
 42
1.00
 50
0.00
 71
     0
  0
ENDTAB
  0
ENDSEC
  0
SECTION
  2
BLOCKS
  0
BLOCK
  8
0
  2
EPAD
 70
0
 10
0.0
 20
0.0
  0
POLYLINE
  8
0
 66
1
 70
1
 40
0.5
 41
0.5
  0
VERTEX
  8
0
 10
-0.25
 20
0.0
 42
1.0
  0
VERTEX
  8
0
 10
0.25
 20
0.0
 42
1.0
  0
SEQEND
  8
0
  0
ENDBLK
  8
0
  0
BLOCK
  8
0
  2
RPAD
 70
0
 10
0.0
 20
0.0
  0
TRACE
  8
0
 10
-0.5
 20
-0.5
 11
-0.5
 21
0.5
 12
0.5
 22
-0.5
 13
0.5
 23
0.5
  0
ENDBLK
  8
0
  0
ENDSEC
0
SECTION
2
ENTITIES
0
INSERT
8
0
2
EPAD
10
-1.157758
20
0.130932
41
0.019685
42
0.019685
0
CIRCLE
8
0
10
-1.157758
20
0.130932
40
0.010000
0
INSERT
8
0
2
EPAD
10
-1.078388
20
0.268404
41
0.019685
42
0.019685
0
CIRCLE
8
0
10
-1.078388
20
0.268404
40
0.010000
0
INSERT
8
0
2
EPAD
10
-1.098230
20
0.302772
41
0.019685
42
0.019685
0
CIRCLE
8
0
10
-1.098230
20
0.302772
40
0.010000
0
INSERT
8
0
2
EPAD
10
-1.058545
20
0.302772
41
0.019685
42
0.019685
0
CIRCLE
8
0
10
-1.058545
20
0.302772
40
0.010000
0
INSERT
8
0
2
EPAD
10
-1.018860
20
0.302772
41
0.019685
42
0.019685
0
CIRCLE
8
0
10
-1.018860
20
0.302772
40
0.010000
0
INSERT
8
0
2
EPAD
10
-1.078388
20
0.337141
41
0.019685
42
0.019685
0
CIRCLE
8
0
10
-1.078388
20
0.337141
40
0.010000
0
INSERT
8
0
2
EPAD
10
-1.038703
20
0.337141
41
0.019685
42
0.019685
0
CIRCLE
8
0
10
-1.038703
20
0.337141
40
0.010000
0
INSERT
8
0
2
EPAD
10
-0.999018
20
0.337141
41
0.019685
42
0.019685
0
CIRCLE
8
0
10
-0.999018
20
0.337141
40
0.010000
0
INSERT
8
0
2
EPAD
10
-1.098230
20
0.371509
41
0.019685
42
0.019685
0
CIRCLE
8
0
10
-1.098230
20
0.371509
40
0.010000
0
INSERT
8
0
2
EPAD
10
-1.058545
20
0.371509
41
0.019685
42
0.019685
0
CIRCLE
8
0
10
-1.058545
20
0.371509
40
0.010000
0
INSERT
8
0
2
EPAD
10
-1.018860
20
0.371509
41
0.019685
42
0.019685
0
CIRCLE
8
0
10
-1.018860
20
0.371509
40
0.010000
0
INSERT
8
0
2
EPAD
10
-0.979175
20
0.371509
41
0.019685
42
0.019685
0
CIRCLE
8
0
10
-0.979175
20
0.371509
40
0.010000
0
INSERT
8
0
2
EPAD
10
-0.939490
20
0.371509
41
0.019685
42
0.019685
0
CIRCLE
8
0
10
-0.939490
20
0.371509
40
0.010000
0
INSERT
8
0
2
EPAD
10
-1.078388
20
0.405877
41
0.019685
42
0.019685
0
CIRCLE
8
0
10
-1.078388
20
0.405877
40
0.010000
0
INSERT
8
0
2
EPAD
10
-1.038703
20
0.405877
41
0.019685
42
0.019685
0
CIRCLE
8
0
10
-1.038703
20
0.405877
40
0.010000
0
INSERT
8
0
2
EPAD
10
-0.999018
20
0.405877
41
0.019685
42
0.019685
0
CIRCLE
8
0
10
-0.999018
20
0.405877
40
0.010000
0
INSERT
8
0
2
EPAD
10
-0.959333
20
0.405877
41
0.019685
42
0.019685
0
CIRCLE
8
0
10
-0.959333
20
0.405877
40
0.010000
0
INSERT
8
0
2
EPAD
10
-0.919648
20
0.405877
41
0.019685
42
0.019685
0
CIRCLE
8
0
10
-0.919648
20
0.405877
40
0.010000
0
INSERT
8
0
2
EPAD
10
-0.879963
20
0.405877
41
0.019685
42
0.019685
0
CIRCLE
8
0
10
-0.879963
20
0.405877
40
0.010000
0
INSERT
8
0
2
EPAD
10
-1.018860
20
0.440245
41
0.019685
42
0.019685
0
CIRCLE
8
0
10
-1.018860
20
0.440245
40
0.010000
0
INSERT
8
0
2
EPAD
10
-0.979175
20
0.440245
41
0.019685
42
0.019685
0
CIRCLE
8
0
10
-0.979175
20
0.440245
40
0.010000
0
INSERT
8
0
2
EPAD
10
-0.939490
20
0.440245
41
0.019685
42
0.019685
0
CIRCLE
8
0
10
-0.939490
20
0.440245
40
0.010000
0
INSERT
8
0
2
EPAD
10
-0.959333
20
0.474613
41
0.019685
42
0.019685
0
CIRCLE
8
0
10
-0.959333
20
0.474613
40
0.010000
0
INSERT
8
0
2
EPAD
10
-0.919648
20
0.612085
41
0.019685
42
0.019685
0
CIRCLE
8
0
10
-0.919648
20
0.612085
40
0.010000
0
INSERT
8
0
2
EPAD
10
-0.879963
20
0.612085
41
0.019685
42
0.019685
0
CIRCLE
8
0
10
-0.879963
20
0.612085
40
0.010000
0
INSERT
8
0
2
EPAD
10
-0.840278
20
0.612085
41
0.019685
42
0.019685
0
CIRCLE
8
0
10
-0.840278
20
0.612085
40
0.010000
0
INSERT
8
0
2
EPAD
10
-0.899805
20
0.646454
41
0.019685
42
0.019685
0
CIRCLE
8
0
10
-0.899805
20
0.646454
40
0.010000
0
INSERT
8
0
2
EPAD
10
-0.860120
20
0.646454
41
0.019685
42
0.019685
0
CIRCLE
8
0
10
-0.860120
20
0.646454
40
0.010000
0
INSERT
8
0
2
EPAD
10
-1.025053
20
0.142362
41
0.019685
42
0.019685
0
CIRCLE
8
0
10
-1.025053
20
0.142362
40
0.010000
0
INSERT
8
0
2
EPAD
10
-1.005211
20
0.176730
41
0.019685
42
0.019685
0
CIRCLE
8
0
10
-1.005211
20
0.176730
40
0.010000
0
INSERT
8
0
2
EPAD
10
-0.965526
20
0.176730
41
0.019685
42
0.019685
0
CIRCLE
8
0
10
-0.965526
20
0.176730
40
0.010000
0
INSERT
8
0
2
EPAD
10
-0.945683
20
0.211098
41
0.019685
42
0.019685
0
CIRCLE
8
0
10
-0.945683
20
0.211098
40
0.010000
0
INSERT
8
0
2
EPAD
10
-0.905998
20
0.211098
41
0.019685
42
0.019685
0
CIRCLE
8
0
10
-0.905998
20
0.211098
40
0.010000
0
INSERT
8
0
2
EPAD
10
-0.886155
20
0.245467
41
0.019685
42
0.019685
0
CIRCLE
8
0
10
-0.886155
20
0.245467
40
0.010000
0
INSERT
8
0
2
EPAD
10
-0.866313
20
0.279835
41
0.019685
42
0.019685
0
CIRCLE
8
0
10
-0.866313
20
0.279835
40
0.010000
0
INSERT
8
0
2
EPAD
10
-0.826628
20
0.279835
41
0.019685
42
0.019685
0
CIRCLE
8
0
10
-0.826628
20
0.279835
40
0.010000
0
INSERT
8
0
2
EPAD
10
-0.806785
20
0.314203
41
0.019685
42
0.019685
0
CIRCLE
8
0
10
-0.806785
20
0.314203
40
0.010000
0
INSERT
8
0
2
EPAD
10
-0.767100
20
0.314203
41
0.019685
42
0.019685
0
CIRCLE
8
0
10
-0.767100
20
0.314203
40
0.010000
0
INSERT
8
0
2
EPAD
10
-0.747258
20
0.348571
41
0.019685
42
0.019685
0
CIRCLE
8
0
10
-0.747258
20
0.348571
40
0.010000
0
INSERT
8
0
2
EPAD
10
-0.687730
20
0.382939
41
0.019685
42
0.019685
0
CIRCLE
8
0
10
-0.687730
20
0.382939
40
0.010000
0
INSERT
8
0
2
EPAD
10
-0.707573
20
0.417307
41
0.019685
42
0.019685
0
CIRCLE
8
0
10
-0.707573
20
0.417307
40
0.010000
0
INSERT
8
0
2
EPAD
10
-0.667888
20
0.417307
41
0.019685
42
0.019685
0
CIRCLE
8
0
10
-0.667888
20
0.417307
40
0.010000
0
INSERT
8
0
2
EPAD
10
-0.648045
20
0.589148
41
0.019685
42
0.019685
0
CIRCLE
8
0
10
-0.648045
20
0.589148
40
0.010000
0
INSERT
8
0
2
EPAD
10
-0.707573
20
0.623516
41
0.019685
42
0.019685
0
CIRCLE
8
0
10
-0.707573
20
0.623516
40
0.010000
0
INSERT
8
0
2
EPAD
10
-0.667888
20
0.623516
41
0.019685
42
0.019685
0
CIRCLE
8
0
10
-0.667888
20
0.623516
40
0.010000
0
INSERT
8
0
2
EPAD
10
-0.687730
20
0.657884
41
0.019685
42
0.019685
0
CIRCLE
8
0
10
-0.687730
20
0.657884
40
0.010000
0
INSERT
8
0
2
EPAD
10
-0.648045
20
0.657884
41
0.019685
42
0.019685
0
CIRCLE
8
0
10
-0.648045
20
0.657884
40
0.010000
0
INSERT
8
0
2
EPAD
10
-0.755053
20
0.145236
41
0.019685
42
0.019685
0
CIRCLE
8
0
10
-0.755053
20
0.145236
40
0.010000
0
INSERT
8
0
2
EPAD
10
-0.735211
20
0.179604
41
0.019685
42
0.019685
0
CIRCLE
8
0
10
-0.735211
20
0.179604
40
0.010000
0
INSERT
8
0
2
EPAD
10
-0.695526
20
0.179604
41
0.019685
42
0.019685
0
CIRCLE
8
0
10
-0.695526
20
0.179604
40
0.010000
0
INSERT
8
0
2
EPAD
10
-0.675683
20
0.213972
41
0.019685
42
0.019685
0
CIRCLE
8
0
10
-0.675683
20
0.213972
40
0.010000
0
INSERT
8
0
2
EPAD
10
-0.655841
20
0.248341
41
0.019685
42
0.019685
0
CIRCLE
8
0
10
-0.655841
20
0.248341
40
0.010000
0
INSERT
8
0
2
EPAD
10
-0.616156
20
0.248341
41
0.019685
42
0.019685
0
CIRCLE
8
0
10
-0.616156
20
0.248341
40
0.010000
0
INSERT
8
0
2
EPAD
10
-0.596313
20
0.282709
41
0.019685
42
0.019685
0
CIRCLE
8
0
10
-0.596313
20
0.282709
40
0.010000
0
INSERT
8
0
2
EPAD
10
-0.576470
20
0.317077
41
0.019685
42
0.019685
0
CIRCLE
8
0
10
-0.576470
20
0.317077
40
0.010000
0
INSERT
8
0
2
EPAD
10
-0.556628
20
0.351445
41
0.019685
42
0.019685
0
CIRCLE
8
0
10
-0.556628
20
0.351445
40
0.010000
0
INSERT
8
0
2
EPAD
10
-0.516943
20
0.351445
41
0.019685
42
0.019685
0
CIRCLE
8
0
10
-0.516943
20
0.351445
40
0.010000
0
INSERT
8
0
2
EPAD
10
-0.497100
20
0.385813
41
0.019685
42
0.019685
0
CIRCLE
8
0
10
-0.497100
20
0.385813
40
0.010000
0
INSERT
8
0
2
EPAD
10
-0.477258
20
0.420181
41
0.019685
42
0.019685
0
CIRCLE
8
0
10
-0.477258
20
0.420181
40
0.010000
0
INSERT
8
0
2
EPAD
10
-0.437573
20
0.420181
41
0.019685
42
0.019685
0
CIRCLE
8
0
10
-0.437573
20
0.420181
40
0.010000
0
INSERT
8
0
2
EPAD
10
-0.497100
20
0.592022
41
0.019685
42
0.019685
0
CIRCLE
8
0
10
-0.497100
20
0.592022
40
0.010000
0
INSERT
8
0
2
EPAD
10
-0.457415
20
0.592022
41
0.019685
42
0.019685
0
CIRCLE
8
0
10
-0.457415
20
0.592022
40
0.010000
0
INSERT
8
0
2
EPAD
10
-0.477258
20
0.626390
41
0.019685
42
0.019685
0
CIRCLE
8
0
10
-0.477258
20
0.626390
40
0.010000
0
INSERT
8
0
2
EPAD
10
-0.437573
20
0.626390
41
0.019685
42
0.019685
0
CIRCLE
8
0
10
-0.437573
20
0.626390
40
0.010000
0
INSERT
8
0
2
EPAD
10
-0.497100
20
0.660758
41
0.019685
42
0.019685
0
CIRCLE
8
0
10
-0.497100
20
0.660758
40
0.010000
0
INSERT
8
0
2
EPAD
10
-0.457415
20
0.660758
41
0.019685
42
0.019685
0
CIRCLE
8
0
10
-0.457415
20
0.660758
40
0.010000
0
INSERT
8
0
2
EPAD
10
-0.540683
20
0.210720
41
0.019685
42
0.019685
0
CIRCLE
8
0
10
-0.540683
20
0.210720
40
0.010000
0
INSERT
8
0
2
EPAD
10
-0.481156
20
0.245088
41
0.019685
42
0.019685
0
CIRCLE
8
0
10
-0.481156
20
0.245088
40
0.010000
0
INSERT
8
0
2
EPAD
10
-0.461313
20
0.279456
41
0.019685
42
0.019685
0
CIRCLE
8
0
10
-0.461313
20
0.279456
40
0.010000
0
INSERT
8
0
2
EPAD
10
-0.401785
20
0.313824
41
0.019685
42
0.019685
0
CIRCLE
8
0
10
-0.401785
20
0.313824
40
0.010000
0
INSERT
8
0
2
EPAD
10
-0.381943
20
0.348192
41
0.019685
42
0.019685
0
CIRCLE
8
0
10
-0.381943
20
0.348192
40
0.010000
0
INSERT
8
0
2
EPAD
10
-0.322415
20
0.382560
41
0.019685
42
0.019685
0
CIRCLE
8
0
10
-0.322415
20
0.382560
40
0.010000
0
INSERT
8
0
2
EPAD
10
-0.302573
20
0.416928
41
0.019685
42
0.019685
0
CIRCLE
8
0
10
-0.302573
20
0.416928
40
0.010000
0
INSERT
8
0
2
EPAD
10
-0.262888
20
0.416928
41
0.019685
42
0.019685
0
CIRCLE
8
0
10
-0.262888
20
0.416928
40
0.010000
0
INSERT
8
0
2
EPAD
10
-0.243045
20
0.588769
41
0.019685
42
0.019685
0
CIRCLE
8
0
10
-0.243045
20
0.588769
40
0.010000
0
INSERT
8
0
2
EPAD
10
-0.302573
20
0.623137
41
0.019685
42
0.019685
0
CIRCLE
8
0
10
-0.302573
20
0.623137
40
0.010000
0
INSERT
8
0
2
EPAD
10
-0.262888
20
0.623137
41
0.019685
42
0.019685
0
CIRCLE
8
0
10
-0.262888
20
0.623137
40
0.010000
0
INSERT
8
0
2
EPAD
10
-0.282730
20
0.657505
41
0.019685
42
0.019685
0
CIRCLE
8
0
10
-0.282730
20
0.657505
40
0.010000
0
INSERT
8
0
2
EPAD
10
-0.243045
20
0.657505
41
0.019685
42
0.019685
0
CIRCLE
8
0
10
-0.243045
20
0.657505
40
0.010000
0
INSERT
8
0
2
EPAD
10
0.092321
20
-0.423262
41
0.019685
42
0.019685
0
CIRCLE
8
0
10
0.092321
20
-0.423262
40
0.010000
0
INSERT
8
0
2
EPAD
10
0.132006
20
-0.423262
41
0.019685
42
0.019685
0
CIRCLE
8
0
10
0.132006
20
-0.423262
40
0.010000
0
INSERT
8
0
2
EPAD
10
0.171691
20
-0.423262
41
0.019685
42
0.019685
0
CIRCLE
8
0
10
0.171691
20
-0.423262
40
0.010000
0
INSERT
8
0
2
EPAD
10
0.112163
20
-0.388894
41
0.019685
42
0.019685
0
CIRCLE
8
0
10
0.112163
20
-0.388894
40
0.010000
0
INSERT
8
0
2
EPAD
10
0.151848
20
-0.388894
41
0.019685
42
0.019685
0
CIRCLE
8
0
10
0.151848
20
-0.388894
40
0.010000
0
INSERT
8
0
2
EPAD
10
0.191533
20
-0.388894
41
0.019685
42
0.019685
0
CIRCLE
8
0
10
0.191533
20
-0.388894
40
0.010000
0
INSERT
8
0
2
EPAD
10
0.132006
20
-0.354526
41
0.019685
42
0.019685
0
CIRCLE
8
0
10
0.132006
20
-0.354526
40
0.010000
0
INSERT
8
0
2
EPAD
10
0.171691
20
-0.354526
41
0.019685
42
0.019685
0
CIRCLE
8
0
10
0.171691
20
-0.354526
40
0.010000
0
INSERT
8
0
2
EPAD
10
0.211376
20
-0.354526
41
0.019685
42
0.019685
0
CIRCLE
8
0
10
0.211376
20
-0.354526
40
0.010000
0
INSERT
8
0
2
EPAD
10
0.251061
20
-0.354526
41
0.019685
42
0.019685
0
CIRCLE
8
0
10
0.251061
20
-0.354526
40
0.010000
0
INSERT
8
0
2
EPAD
10
-1.157758
20
-0.320157
41
0.019685
42
0.019685
0
CIRCLE
8
0
10
-1.157758
20
-0.320157
40
0.010000
0
INSERT
8
0
2
EPAD
10
0.112163
20
-0.320157
41
0.019685
42
0.019685
0
CIRCLE
8
0
10
0.112163
20
-0.320157
40
0.010000
0
INSERT
8
0
2
EPAD
10
0.151848
20
-0.320157
41
0.019685
42
0.019685
0
CIRCLE
8
0
10
0.151848
20
-0.320157
40
0.010000
0
INSERT
8
0
2
EPAD
10
-0.741065
20
-0.285789
41
0.019685
42
0.019685
0
CIRCLE
8
0
10
-0.741065
20
-0.285789
40
0.010000
0
INSERT
8
0
2
EPAD
10
-0.304530
20
-0.285789
41
0.019685
42
0.019685
0
CIRCLE
8
0
10
-0.304530
20
-0.285789
40
0.010000
0
INSERT
8
0
2
EPAD
10
-0.264844
20
-0.285789
41
0.019685
42
0.019685
0
CIRCLE
8
0
10
-0.264844
20
-0.285789
40
0.010000
0
INSERT
8
0
2
EPAD
10
0.132006
20
-0.285789
41
0.019685
42
0.019685
0
CIRCLE
8
0
10
0.132006
20
-0.285789
40
0.010000
0
INSERT
8
0
2
EPAD
10
0.171691
20
-0.285789
41
0.019685
42
0.019685
0
CIRCLE
8
0
10
0.171691
20
-0.285789
40
0.010000
0
INSERT
8
0
2
EPAD
10
0.330431
20
-0.285789
41
0.019685
42
0.019685
0
CIRCLE
8
0
10
0.330431
20
-0.285789
40
0.010000
0
INSERT
8
0
2
EPAD
10
0.370116
20
-0.285789
41
0.019685
42
0.019685
0
CIRCLE
8
0
10
0.370116
20
-0.285789
40
0.010000
0
INSERT
8
0
2
EPAD
10
0.409801
20
-0.285789
41
0.019685
42
0.019685
0
CIRCLE
8
0
10
0.409801
20
-0.285789
40
0.010000
0
INSERT
8
0
2
EPAD
10
0.449486
20
-0.285789
41
0.019685
42
0.019685
0
CIRCLE
8
0
10
0.449486
20
-0.285789
40
0.010000
0
INSERT
8
0
2
EPAD
10
-1.157758
20
-0.251421
41
0.019685
42
0.019685
0
CIRCLE
8
0
10
-1.157758
20
-0.251421
40
0.010000
0
INSERT
8
0
2
EPAD
10
-0.284687
20
-0.251421
41
0.019685
42
0.019685
0
CIRCLE
8
0
10
-0.284687
20
-0.251421
40
0.010000
0
INSERT
8
0
2
EPAD
10
-0.245002
20
-0.251421
41
0.019685
42
0.019685
0
CIRCLE
8
0
10
-0.245002
20
-0.251421
40
0.010000
0
INSERT
8
0
2
EPAD
10
-0.126600
20
-0.302500
41
0.019685
42
0.019685
0
CIRCLE
8
0
10
-0.126600
20
-0.302500
40
0.010000
0
INSERT
8
0
2
EPAD
10
0.112163
20
-0.251421
41
0.019685
42
0.019685
0
CIRCLE
8
0
10
0.112163
20
-0.251421
40
0.010000
0
INSERT
8
0
2
EPAD
10
0.151848
20
-0.251421
41
0.019685
42
0.019685
0
CIRCLE
8
0
10
0.151848
20
-0.251421
40
0.010000
0
INSERT
8
0
2
EPAD
10
0.310589
20
-0.251421
41
0.019685
42
0.019685
0
CIRCLE
8
0
10
0.310589
20
-0.251421
40
0.010000
0
INSERT
8
0
2
EPAD
10
0.350274
20
-0.251421
41
0.019685
42
0.019685
0
CIRCLE
8
0
10
0.350274
20
-0.251421
40
0.010000
0
INSERT
8
0
2
EPAD
10
0.389959
20
-0.251421
41
0.019685
42
0.019685
0
CIRCLE
8
0
10
0.389959
20
-0.251421
40
0.010000
0
INSERT
8
0
2
EPAD
10
0.429644
20
-0.251421
41
0.019685
42
0.019685
0
CIRCLE
8
0
10
0.429644
20
-0.251421
40
0.010000
0
INSERT
8
0
2
EPAD
10
0.469329
20
-0.251421
41
0.019685
42
0.019685
0
CIRCLE
8
0
10
0.469329
20
-0.251421
40
0.010000
0
INSERT
8
0
2
EPAD
10
-0.741065
20
-0.217053
41
0.019685
42
0.019685
0
CIRCLE
8
0
10
-0.741065
20
-0.217053
40
0.010000
0
INSERT
8
0
2
EPAD
10
-0.304530
20
-0.217053
41
0.019685
42
0.019685
0
CIRCLE
8
0
10
-0.304530
20
-0.217053
40
0.010000
0
INSERT
8
0
2
EPAD
10
-0.264844
20
-0.217053
41
0.019685
42
0.019685
0
CIRCLE
8
0
10
-0.264844
20
-0.217053
40
0.010000
0
INSERT
8
0
2
EPAD
10
0.132006
20
-0.217053
41
0.019685
42
0.019685
0
CIRCLE
8
0
10
0.132006
20
-0.217053
40
0.010000
0
INSERT
8
0
2
EPAD
10
0.171691
20
-0.217053
41
0.019685
42
0.019685
0
CIRCLE
8
0
10
0.171691
20
-0.217053
40
0.010000
0
INSERT
8
0
2
EPAD
10
0.330431
20
-0.217053
41
0.019685
42
0.019685
0
CIRCLE
8
0
10
0.330431
20
-0.217053
40
0.010000
0
INSERT
8
0
2
EPAD
10
0.370116
20
-0.217053
41
0.019685
42
0.019685
0
CIRCLE
8
0
10
0.370116
20
-0.217053
40
0.010000
0
INSERT
8
0
2
EPAD
10
0.409801
20
-0.217053
41
0.019685
42
0.019685
0
CIRCLE
8
0
10
0.409801
20
-0.217053
40
0.010000
0
INSERT
8
0
2
EPAD
10
0.449486
20
-0.217053
41
0.019685
42
0.019685
0
CIRCLE
8
0
10
0.449486
20
-0.217053
40
0.010000
0
INSERT
8
0
2
EPAD
10
0.489171
20
-0.217053
41
0.019685
42
0.019685
0
CIRCLE
8
0
10
0.489171
20
-0.217053
40
0.010000
0
INSERT
8
0
2
EPAD
10
0.886022
20
-0.217053
41
0.019685
42
0.019685
0
CIRCLE
8
0
10
0.886022
20
-0.217053
40
0.010000
0
INSERT
8
0
2
EPAD
10
-0.284687
20
-0.182685
41
0.019685
42
0.019685
0
CIRCLE
8
0
10
-0.284687
20
-0.182685
40
0.010000
0
INSERT
8
0
2
EPAD
10
-0.245002
20
-0.182685
41
0.019685
42
0.019685
0
CIRCLE
8
0
10
-0.245002
20
-0.182685
40
0.010000
0
INSERT
8
0
2
EPAD
10
-0.121600
20
-0.197500
41
0.019685
42
0.019685
0
CIRCLE
8
0
10
-0.121600
20
-0.197500
40
0.010000
0
INSERT
8
0
2
EPAD
10
0.112163
20
-0.182685
41
0.019685
42
0.019685
0
CIRCLE
8
0
10
0.112163
20
-0.182685
40
0.010000
0
INSERT
8
0
2
EPAD
10
0.151848
20
-0.182685
41
0.019685
42
0.019685
0
CIRCLE
8
0
10
0.151848
20
-0.182685
40
0.010000
0
INSERT
8
0
2
EPAD
10
0.310589
20
-0.182685
41
0.019685
42
0.019685
0
CIRCLE
8
0
10
0.310589
20
-0.182685
40
0.010000
0
INSERT
8
0
2
EPAD
10
0.350274
20
-0.182685
41
0.019685
42
0.019685
0
CIRCLE
8
0
10
0.350274
20
-0.182685
40
0.010000
0
INSERT
8
0
2
EPAD
10
0.389959
20
-0.182685
41
0.019685
42
0.019685
0
CIRCLE
8
0
10
0.389959
20
-0.182685
40
0.010000
0
INSERT
8
0
2
EPAD
10
0.429644
20
-0.182685
41
0.019685
42
0.019685
0
CIRCLE
8
0
10
0.429644
20
-0.182685
40
0.010000
0
INSERT
8
0
2
EPAD
10
0.469329
20
-0.182685
41
0.019685
42
0.019685
0
CIRCLE
8
0
10
0.469329
20
-0.182685
40
0.010000
0
INSERT
8
0
2
EPAD
10
-0.304530
20
-0.148317
41
0.019685
42
0.019685
0
CIRCLE
8
0
10
-0.304530
20
-0.148317
40
0.010000
0
INSERT
8
0
2
EPAD
10
-0.264844
20
-0.148317
41
0.019685
42
0.019685
0
CIRCLE
8
0
10
-0.264844
20
-0.148317
40
0.010000
0
INSERT
8
0
2
EPAD
10
0.132006
20
-0.148317
41
0.019685
42
0.019685
0
CIRCLE
8
0
10
0.132006
20
-0.148317
40
0.010000
0
INSERT
8
0
2
EPAD
10
0.171691
20
-0.148317
41
0.019685
42
0.019685
0
CIRCLE
8
0
10
0.171691
20
-0.148317
40
0.010000
0
INSERT
8
0
2
EPAD
10
0.330431
20
-0.148317
41
0.019685
42
0.019685
0
CIRCLE
8
0
10
0.330431
20
-0.148317
40
0.010000
0
INSERT
8
0
2
EPAD
10
0.370116
20
-0.148317
41
0.019685
42
0.019685
0
CIRCLE
8
0
10
0.370116
20
-0.148317
40
0.010000
0
INSERT
8
0
2
EPAD
10
0.409801
20
-0.148317
41
0.019685
42
0.019685
0
CIRCLE
8
0
10
0.409801
20
-0.148317
40
0.010000
0
INSERT
8
0
2
EPAD
10
0.449486
20
-0.148317
41
0.019685
42
0.019685
0
CIRCLE
8
0
10
0.449486
20
-0.148317
40
0.010000
0
INSERT
8
0
2
EPAD
10
-0.324372
20
-0.113949
41
0.019685
42
0.019685
0
CIRCLE
8
0
10
-0.324372
20
-0.113949
40
0.010000
0
INSERT
8
0
2
EPAD
10
-0.284687
20
-0.113949
41
0.019685
42
0.019685
0
CIRCLE
8
0
10
-0.284687
20
-0.113949
40
0.010000
0
INSERT
8
0
2
EPAD
10
-0.245002
20
-0.113949
41
0.019685
42
0.019685
0
CIRCLE
8
0
10
-0.245002
20
-0.113949
40
0.010000
0
INSERT
8
0
2
EPAD
10
-0.205317
20
-0.113949
41
0.019685
42
0.019685
0
CIRCLE
8
0
10
-0.205317
20
-0.113949
40
0.010000
0
INSERT
8
0
2
EPAD
10
-0.165632
20
-0.113949
41
0.019685
42
0.019685
0
CIRCLE
8
0
10
-0.165632
20
-0.113949
40
0.010000
0
INSERT
8
0
2
EPAD
10
-0.125947
20
-0.113949
41
0.019685
42
0.019685
0
CIRCLE
8
0
10
-0.125947
20
-0.113949
40
0.010000
0
INSERT
8
0
2
EPAD
10
-0.121600
20
-0.162500
41
0.019685
42
0.019685
0
CIRCLE
8
0
10
-0.121600
20
-0.162500
40
0.010000
0
INSERT
8
0
2
EPAD
10
0.112163
20
-0.113949
41
0.019685
42
0.019685
0
CIRCLE
8
0
10
0.112163
20
-0.113949
40
0.010000
0
INSERT
8
0
2
EPAD
10
0.151848
20
-0.113949
41
0.019685
42
0.019685
0
CIRCLE
8
0
10
0.151848
20
-0.113949
40
0.010000
0
INSERT
8
0
2
EPAD
10
0.191533
20
-0.113949
41
0.019685
42
0.019685
0
CIRCLE
8
0
10
0.191533
20
-0.113949
40
0.010000
0
INSERT
8
0
2
EPAD
10
0.231219
20
-0.113949
41
0.019685
42
0.019685
0
CIRCLE
8
0
10
0.231219
20
-0.113949
40
0.010000
0
INSERT
8
0
2
EPAD
10
0.270904
20
-0.113949
41
0.019685
42
0.019685
0
CIRCLE
8
0
10
0.270904
20
-0.113949
40
0.010000
0
INSERT
8
0
2
EPAD
10
0.310589
20
-0.113949
41
0.019685
42
0.019685
0
CIRCLE
8
0
10
0.310589
20
-0.113949
40
0.010000
0
INSERT
8
0
2
EPAD
10
0.350274
20
-0.113949
41
0.019685
42
0.019685
0
CIRCLE
8
0
10
0.350274
20
-0.113949
40
0.010000
0
INSERT
8
0
2
EPAD
10
0.389959
20
-0.113949
41
0.019685
42
0.019685
0
CIRCLE
8
0
10
0.389959
20
-0.113949
40
0.010000
0
INSERT
8
0
2
EPAD
10
0.429644
20
-0.113949
41
0.019685
42
0.019685
0
CIRCLE
8
0
10
0.429644
20
-0.113949
40
0.010000
0
INSERT
8
0
2
EPAD
10
0.469329
20
-0.113949
41
0.019685
42
0.019685
0
CIRCLE
8
0
10
0.469329
20
-0.113949
40
0.010000
0
INSERT
8
0
2
EPAD
10
-0.780750
20
-0.079581
41
0.019685
42
0.019685
0
CIRCLE
8
0
10
-0.780750
20
-0.079581
40
0.010000
0
INSERT
8
0
2
EPAD
10
-0.741065
20
-0.079581
41
0.019685
42
0.019685
0
CIRCLE
8
0
10
-0.741065
20
-0.079581
40
0.010000
0
INSERT
8
0
2
EPAD
10
0.449486
20
-0.079581
41
0.019685
42
0.019685
0
CIRCLE
8
0
10
0.449486
20
-0.079581
40
0.010000
0
INSERT
8
0
2
EPAD
10
0.489171
20
-0.079581
41
0.019685
42
0.019685
0
CIRCLE
8
0
10
0.489171
20
-0.079581
40
0.010000
0
INSERT
8
0
2
EPAD
10
0.886022
20
-0.079581
41
0.019685
42
0.019685
0
CIRCLE
8
0
10
0.886022
20
-0.079581
40
0.010000
0
INSERT
8
0
2
EPAD
10
-1.157758
20
-0.045213
41
0.019685
42
0.019685
0
CIRCLE
8
0
10
-1.157758
20
-0.045213
40
0.010000
0
INSERT
8
0
2
EPAD
10
-0.403742
20
0.160996
41
0.019685
42
0.019685
0
CIRCLE
8
0
10
-0.403742
20
0.160996
40
0.010000
0
INSERT
8
0
2
EPAD
10
-0.344215
20
0.195364
41
0.019685
42
0.019685
0
CIRCLE
8
0
10
-0.344215
20
0.195364
40
0.010000
0
INSERT
8
0
2
EPAD
10
-0.324372
20
0.229732
41
0.019685
42
0.019685
0
CIRCLE
8
0
10
-0.324372
20
0.229732
40
0.010000
0
INSERT
8
0
2
EPAD
10
-0.284687
20
0.229732
41
0.019685
42
0.019685
0
CIRCLE
8
0
10
-0.284687
20
0.229732
40
0.010000
0
INSERT
8
0
2
EPAD
10
-0.264844
20
0.264100
41
0.019685
42
0.019685
0
CIRCLE
8
0
10
-0.264844
20
0.264100
40
0.010000
0
INSERT
8
0
2
EPAD
10
-0.225159
20
0.264100
41
0.019685
42
0.019685
0
CIRCLE
8
0
10
-0.225159
20
0.264100
40
0.010000
0
INSERT
8
0
2
EPAD
10
-0.205317
20
0.298469
41
0.019685
42
0.019685
0
CIRCLE
8
0
10
-0.205317
20
0.298469
40
0.010000
0
INSERT
8
0
2
EPAD
10
-0.185474
20
0.332837
41
0.019685
42
0.019685
0
CIRCLE
8
0
10
-0.185474
20
0.332837
40
0.010000
0
INSERT
8
0
2
EPAD
10
-0.145789
20
0.332837
41
0.019685
42
0.019685
0
CIRCLE
8
0
10
-0.145789
20
0.332837
40
0.010000
0
INSERT
8
0
2
EPAD
10
-0.125947
20
0.367205
41
0.019685
42
0.019685
0
CIRCLE
8
0
10
-0.125947
20
0.367205
40
0.010000
0
INSERT
8
0
2
EPAD
10
-0.086262
20
0.367205
41
0.019685
42
0.019685
0
CIRCLE
8
0
10
-0.086262
20
0.367205
40
0.010000
0
INSERT
8
0
2
EPAD
10
-0.106104
20
0.401573
41
0.019685
42
0.019685
0
CIRCLE
8
0
10
-0.106104
20
0.401573
40
0.010000
0
INSERT
8
0
2
EPAD
10
-0.066419
20
0.401573
41
0.019685
42
0.019685
0
CIRCLE
8
0
10
-0.066419
20
0.401573
40
0.010000
0
INSERT
8
0
2
EPAD
10
-0.046577
20
0.435941
41
0.019685
42
0.019685
0
CIRCLE
8
0
10
-0.046577
20
0.435941
40
0.010000
0
INSERT
8
0
2
EPAD
10
-0.106104
20
0.607781
41
0.019685
42
0.019685
0
CIRCLE
8
0
10
-0.106104
20
0.607781
40
0.010000
0
INSERT
8
0
2
EPAD
10
-0.066419
20
0.607781
41
0.019685
42
0.019685
0
CIRCLE
8
0
10
-0.066419
20
0.607781
40
0.010000
0
INSERT
8
0
2
EPAD
10
-0.086262
20
0.642150
41
0.019685
42
0.019685
0
CIRCLE
8
0
10
-0.086262
20
0.642150
40
0.010000
0
INSERT
8
0
2
EPAD
10
-0.046577
20
0.642150
41
0.019685
42
0.019685
0
CIRCLE
8
0
10
-0.046577
20
0.642150
40
0.010000
0
INSERT
8
0
2
EPAD
10
0.453530
20
0.110046
41
0.019685
42
0.019685
0
CIRCLE
8
0
10
0.453530
20
0.110046
40
0.010000
0
INSERT
8
0
2
EPAD
10
0.493215
20
0.110046
41
0.019685
42
0.019685
0
CIRCLE
8
0
10
0.493215
20
0.110046
40
0.010000
0
INSERT
8
0
2
EPAD
10
0.433687
20
0.144414
41
0.019685
42
0.019685
0
CIRCLE
8
0
10
0.433687
20
0.144414
40
0.010000
0
INSERT
8
0
2
EPAD
10
0.473372
20
0.144414
41
0.019685
42
0.019685
0
CIRCLE
8
0
10
0.473372
20
0.144414
40
0.010000
0
INSERT
8
0
2
EPAD
10
0.413844
20
0.178782
41
0.019685
42
0.019685
0
CIRCLE
8
0
10
0.413844
20
0.178782
40
0.010000
0
INSERT
8
0
2
EPAD
10
0.453530
20
0.178782
41
0.019685
42
0.019685
0
CIRCLE
8
0
10
0.453530
20
0.178782
40
0.010000
0
INSERT
8
0
2
EPAD
10
0.433687
20
0.213150
41
0.019685
42
0.019685
0
CIRCLE
8
0
10
0.433687
20
0.213150
40
0.010000
0
INSERT
8
0
2
EPAD
10
0.413844
20
0.247519
41
0.019685
42
0.019685
0
CIRCLE
8
0
10
0.413844
20
0.247519
40
0.010000
0
INSERT
8
0
2
EPAD
10
0.453530
20
0.247519
41
0.019685
42
0.019685
0
CIRCLE
8
0
10
0.453530
20
0.247519
40
0.010000
0
INSERT
8
0
2
EPAD
10
0.394002
20
0.281887
41
0.019685
42
0.019685
0
CIRCLE
8
0
10
0.394002
20
0.281887
40
0.010000
0
INSERT
8
0
2
EPAD
10
0.433687
20
0.281887
41
0.019685
42
0.019685
0
CIRCLE
8
0
10
0.433687
20
0.281887
40
0.010000
0
INSERT
8
0
2
EPAD
10
0.374159
20
0.316255
41
0.019685
42
0.019685
0
CIRCLE
8
0
10
0.374159
20
0.316255
40
0.010000
0
INSERT
8
0
2
EPAD
10
0.413844
20
0.316255
41
0.019685
42
0.019685
0
CIRCLE
8
0
10
0.413844
20
0.316255
40
0.010000
0
INSERT
8
0
2
EPAD
10
0.354317
20
0.350623
41
0.019685
42
0.019685
0
CIRCLE
8
0
10
0.354317
20
0.350623
40
0.010000
0
INSERT
8
0
2
EPAD
10
0.394002
20
0.350623
41
0.019685
42
0.019685
0
CIRCLE
8
0
10
0.394002
20
0.350623
40
0.010000
0
INSERT
8
0
2
EPAD
10
0.334474
20
0.384991
41
0.019685
42
0.019685
0
CIRCLE
8
0
10
0.334474
20
0.384991
40
0.010000
0
INSERT
8
0
2
EPAD
10
0.374159
20
0.384991
41
0.019685
42
0.019685
0
CIRCLE
8
0
10
0.374159
20
0.384991
40
0.010000
0
INSERT
8
0
2
EPAD
10
0.314632
20
0.419359
41
0.019685
42
0.019685
0
CIRCLE
8
0
10
0.314632
20
0.419359
40
0.010000
0
INSERT
8
0
2
EPAD
10
0.354317
20
0.419359
41
0.019685
42
0.019685
0
CIRCLE
8
0
10
0.354317
20
0.419359
40
0.010000
0
INSERT
8
0
2
EPAD
10
0.294789
20
0.591200
41
0.019685
42
0.019685
0
CIRCLE
8
0
10
0.294789
20
0.591200
40
0.010000
0
INSERT
8
0
2
EPAD
10
0.274947
20
0.625568
41
0.019685
42
0.019685
0
CIRCLE
8
0
10
0.274947
20
0.625568
40
0.010000
0
INSERT
8
0
2
EPAD
10
0.314632
20
0.625568
41
0.019685
42
0.019685
0
CIRCLE
8
0
10
0.314632
20
0.625568
40
0.010000
0
INSERT
8
0
2
EPAD
10
0.354317
20
0.625568
41
0.019685
42
0.019685
0
CIRCLE
8
0
10
0.354317
20
0.625568
40
0.010000
0
INSERT
8
0
2
EPAD
10
0.294789
20
0.659936
41
0.019685
42
0.019685
0
CIRCLE
8
0
10
0.294789
20
0.659936
40
0.010000
0
INSERT
8
0
2
EPAD
10
0.334474
20
0.659936
41
0.019685
42
0.019685
0
CIRCLE
8
0
10
0.334474
20
0.659936
40
0.010000
0
INSERT
8
0
2
EPAD
10
0.584159
20
0.284499
41
0.019685
42
0.019685
0
CIRCLE
8
0
10
0.584159
20
0.284499
40
0.010000
0
INSERT
8
0
2
EPAD
10
0.564317
20
0.318867
41
0.019685
42
0.019685
0
CIRCLE
8
0
10
0.564317
20
0.318867
40
0.010000
0
INSERT
8
0
2
EPAD
10
0.544474
20
0.353235
41
0.019685
42
0.019685
0
CIRCLE
8
0
10
0.544474
20
0.353235
40
0.010000
0
INSERT
8
0
2
EPAD
10
0.584159
20
0.353235
41
0.019685
42
0.019685
0
CIRCLE
8
0
10
0.584159
20
0.353235
40
0.010000
0
INSERT
8
0
2
EPAD
10
0.524632
20
0.387603
41
0.019685
42
0.019685
0
CIRCLE
8
0
10
0.524632
20
0.387603
40
0.010000
0
INSERT
8
0
2
EPAD
10
0.564317
20
0.387603
41
0.019685
42
0.019685
0
CIRCLE
8
0
10
0.564317
20
0.387603
40
0.010000
0
INSERT
8
0
2
EPAD
10
0.504789
20
0.421971
41
0.019685
42
0.019685
0
CIRCLE
8
0
10
0.504789
20
0.421971
40
0.010000
0
INSERT
8
0
2
EPAD
10
0.544474
20
0.421971
41
0.019685
42
0.019685
0
CIRCLE
8
0
10
0.544474
20
0.421971
40
0.010000
0
INSERT
8
0
2
EPAD
10
0.484947
20
0.593812
41
0.019685
42
0.019685
0
CIRCLE
8
0
10
0.484947
20
0.593812
40
0.010000
0
INSERT
8
0
2
EPAD
10
0.524632
20
0.593812
41
0.019685
42
0.019685
0
CIRCLE
8
0
10
0.524632
20
0.593812
40
0.010000
0
INSERT
8
0
2
EPAD
10
0.564317
20
0.593812
41
0.019685
42
0.019685
0
CIRCLE
8
0
10
0.564317
20
0.593812
40
0.010000
0
INSERT
8
0
2
EPAD
10
0.504789
20
0.628180
41
0.019685
42
0.019685
0
CIRCLE
8
0
10
0.504789
20
0.628180
40
0.010000
0
INSERT
8
0
2
EPAD
10
0.544474
20
0.628180
41
0.019685
42
0.019685
0
CIRCLE
8
0
10
0.544474
20
0.628180
40
0.010000
0
INSERT
8
0
2
EPAD
10
0.484947
20
0.662548
41
0.019685
42
0.019685
0
CIRCLE
8
0
10
0.484947
20
0.662548
40
0.010000
0
INSERT
8
0
2
EPAD
10
0.524632
20
0.662548
41
0.019685
42
0.019685
0
CIRCLE
8
0
10
0.524632
20
0.662548
40
0.010000
0
INSERT
8
0
2
EPAD
10
0.564317
20
0.662548
41
0.019685
42
0.019685
0
CIRCLE
8
0
10
0.564317
20
0.662548
40
0.010000
0
INSERT
8
0
2
EPAD
10
0.843687
20
0.214487
41
0.019685
42
0.019685
0
CIRCLE
8
0
10
0.843687
20
0.214487
40
0.010000
0
INSERT
8
0
2
EPAD
10
0.883372
20
0.214487
41
0.019685
42
0.019685
0
CIRCLE
8
0
10
0.883372
20
0.214487
40
0.010000
0
INSERT
8
0
2
EPAD
10
0.823844
20
0.248855
41
0.019685
42
0.019685
0
CIRCLE
8
0
10
0.823844
20
0.248855
40
0.010000
0
INSERT
8
0
2
EPAD
10
0.863530
20
0.248855
41
0.019685
42
0.019685
0
CIRCLE
8
0
10
0.863530
20
0.248855
40
0.010000
0
INSERT
8
0
2
EPAD
10
0.804002
20
0.283223
41
0.019685
42
0.019685
0
CIRCLE
8
0
10
0.804002
20
0.283223
40
0.010000
0
INSERT
8
0
2
EPAD
10
0.843687
20
0.283223
41
0.019685
42
0.019685
0
CIRCLE
8
0
10
0.843687
20
0.283223
40
0.010000
0
INSERT
8
0
2
EPAD
10
0.784159
20
0.317591
41
0.019685
42
0.019685
0
CIRCLE
8
0
10
0.784159
20
0.317591
40
0.010000
0
INSERT
8
0
2
EPAD
10
0.823844
20
0.317591
41
0.019685
42
0.019685
0
CIRCLE
8
0
10
0.823844
20
0.317591
40
0.010000
0
INSERT
8
0
2
EPAD
10
0.764317
20
0.351959
41
0.019685
42
0.019685
0
CIRCLE
8
0
10
0.764317
20
0.351959
40
0.010000
0
INSERT
8
0
2
EPAD
10
0.804002
20
0.351959
41
0.019685
42
0.019685
0
CIRCLE
8
0
10
0.804002
20
0.351959
40
0.010000
0
INSERT
8
0
2
EPAD
10
0.744474
20
0.386328
41
0.019685
42
0.019685
0
CIRCLE
8
0
10
0.744474
20
0.386328
40
0.010000
0
INSERT
8
0
2
EPAD
10
0.784159
20
0.386328
41
0.019685
42
0.019685
0
CIRCLE
8
0
10
0.784159
20
0.386328
40
0.010000
0
INSERT
8
0
2
EPAD
10
0.684947
20
0.420696
41
0.019685
42
0.019685
0
CIRCLE
8
0
10
0.684947
20
0.420696
40
0.010000
0
INSERT
8
0
2
EPAD
10
0.724632
20
0.420696
41
0.019685
42
0.019685
0
CIRCLE
8
0
10
0.724632
20
0.420696
40
0.010000
0
INSERT
8
0
2
EPAD
10
0.764317
20
0.420696
41
0.019685
42
0.019685
0
CIRCLE
8
0
10
0.764317
20
0.420696
40
0.010000
0
INSERT
8
0
2
EPAD
10
0.704789
20
0.592536
41
0.019685
42
0.019685
0
CIRCLE
8
0
10
0.704789
20
0.592536
40
0.010000
0
INSERT
8
0
2
EPAD
10
0.744474
20
0.592536
41
0.019685
42
0.019685
0
CIRCLE
8
0
10
0.744474
20
0.592536
40
0.010000
0
INSERT
8
0
2
EPAD
10
0.684947
20
0.626904
41
0.019685
42
0.019685
0
CIRCLE
8
0
10
0.684947
20
0.626904
40
0.010000
0
INSERT
8
0
2
EPAD
10
0.724632
20
0.626904
41
0.019685
42
0.019685
0
CIRCLE
8
0
10
0.724632
20
0.626904
40
0.010000
0
INSERT
8
0
2
EPAD
10
0.764317
20
0.626904
41
0.019685
42
0.019685
0
CIRCLE
8
0
10
0.764317
20
0.626904
40
0.010000
0
INSERT
8
0
2
EPAD
10
0.704789
20
0.661272
41
0.019685
42
0.019685
0
CIRCLE
8
0
10
0.704789
20
0.661272
40
0.010000
0
INSERT
8
0
2
EPAD
10
0.744474
20
0.661272
41
0.019685
42
0.019685
0
CIRCLE
8
0
10
0.744474
20
0.661272
40
0.010000
0
INSERT
8
0
2
EPAD
10
1.023844
20
0.195725
41
0.019685
42
0.019685
0
CIRCLE
8
0
10
1.023844
20
0.195725
40
0.010000
0
INSERT
8
0
2
EPAD
10
1.063529
20
0.195725
41
0.019685
42
0.019685
0
CIRCLE
8
0
10
1.063529
20
0.195725
40
0.010000
0
INSERT
8
0
2
EPAD
10
1.004002
20
0.230093
41
0.019685
42
0.019685
0
CIRCLE
8
0
10
1.004002
20
0.230093
40
0.010000
0
INSERT
8
0
2
EPAD
10
1.043687
20
0.230093
41
0.019685
42
0.019685
0
CIRCLE
8
0
10
1.043687
20
0.230093
40
0.010000
0
INSERT
8
0
2
EPAD
10
1.083372
20
0.230093
41
0.019685
42
0.019685
0
CIRCLE
8
0
10
1.083372
20
0.230093
40
0.010000
0
INSERT
8
0
2
EPAD
10
1.123057
20
0.230093
41
0.019685
42
0.019685
0
CIRCLE
8
0
10
1.123057
20
0.230093
40
0.010000
0
INSERT
8
0
2
EPAD
10
0.984159
20
0.264461
41
0.019685
42
0.019685
0
CIRCLE
8
0
10
0.984159
20
0.264461
40
0.010000
0
INSERT
8
0
2
EPAD
10
1.023844
20
0.264461
41
0.019685
42
0.019685
0
CIRCLE
8
0
10
1.023844
20
0.264461
40
0.010000
0
INSERT
8
0
2
EPAD
10
1.063529
20
0.264461
41
0.019685
42
0.019685
0
CIRCLE
8
0
10
1.063529
20
0.264461
40
0.010000
0
INSERT
8
0
2
EPAD
10
1.103215
20
0.264461
41
0.019685
42
0.019685
0
CIRCLE
8
0
10
1.103215
20
0.264461
40
0.010000
0
INSERT
8
0
2
EPAD
10
1.142900
20
0.264461
41
0.019685
42
0.019685
0
CIRCLE
8
0
10
1.142900
20
0.264461
40
0.010000
0
INSERT
8
0
2
EPAD
10
1.182585
20
0.264461
41
0.019685
42
0.019685
0
CIRCLE
8
0
10
1.182585
20
0.264461
40
0.010000
0
INSERT
8
0
2
EPAD
10
0.964317
20
0.298829
41
0.019685
42
0.019685
0
CIRCLE
8
0
10
0.964317
20
0.298829
40
0.010000
0
INSERT
8
0
2
EPAD
10
1.004002
20
0.298829
41
0.019685
42
0.019685
0
CIRCLE
8
0
10
1.004002
20
0.298829
40
0.010000
0
INSERT
8
0
2
EPAD
10
1.043687
20
0.298829
41
0.019685
42
0.019685
0
CIRCLE
8
0
10
1.043687
20
0.298829
40
0.010000
0
INSERT
8
0
2
EPAD
10
1.083372
20
0.298829
41
0.019685
42
0.019685
0
CIRCLE
8
0
10
1.083372
20
0.298829
40
0.010000
0
INSERT
8
0
2
EPAD
10
1.123057
20
0.298829
41
0.019685
42
0.019685
0
CIRCLE
8
0
10
1.123057
20
0.298829
40
0.010000
0
INSERT
8
0
2
EPAD
10
1.162742
20
0.298829
41
0.019685
42
0.019685
0
CIRCLE
8
0
10
1.162742
20
0.298829
40
0.010000
0
INSERT
8
0
2
EPAD
10
1.202427
20
0.298829
41
0.019685
42
0.019685
0
CIRCLE
8
0
10
1.202427
20
0.298829
40
0.010000
0
INSERT
8
0
2
EPAD
10
0.944474
20
0.333197
41
0.019685
42
0.019685
0
CIRCLE
8
0
10
0.944474
20
0.333197
40
0.010000
0
INSERT
8
0
2
EPAD
10
0.984159
20
0.333197
41
0.019685
42
0.019685
0
CIRCLE
8
0
10
0.984159
20
0.333197
40
0.010000
0
INSERT
8
0
2
EPAD
10
1.023844
20
0.333197
41
0.019685
42
0.019685
0
CIRCLE
8
0
10
1.023844
20
0.333197
40
0.010000
0
INSERT
8
0
2
EPAD
10
1.063529
20
0.333197
41
0.019685
42
0.019685
0
CIRCLE
8
0
10
1.063529
20
0.333197
40
0.010000
0
INSERT
8
0
2
EPAD
10
1.103215
20
0.333197
41
0.019685
42
0.019685
0
CIRCLE
8
0
10
1.103215
20
0.333197
40
0.010000
0
INSERT
8
0
2
EPAD
10
1.142900
20
0.333197
41
0.019685
42
0.019685
0
CIRCLE
8
0
10
1.142900
20
0.333197
40
0.010000
0
INSERT
8
0
2
EPAD
10
1.182585
20
0.333197
41
0.019685
42
0.019685
0
CIRCLE
8
0
10
1.182585
20
0.333197
40
0.010000
0
INSERT
8
0
2
EPAD
10
0.924632
20
0.367565
41
0.019685
42
0.019685
0
CIRCLE
8
0
10
0.924632
20
0.367565
40
0.010000
0
INSERT
8
0
2
EPAD
10
0.964317
20
0.367565
41
0.019685
42
0.019685
0
CIRCLE
8
0
10
0.964317
20
0.367565
40
0.010000
0
INSERT
8
0
2
EPAD
10
1.004002
20
0.367565
41
0.019685
42
0.019685
0
CIRCLE
8
0
10
1.004002
20
0.367565
40
0.010000
0
INSERT
8
0
2
EPAD
10
1.043687
20
0.367565
41
0.019685
42
0.019685
0
CIRCLE
8
0
10
1.043687
20
0.367565
40
0.010000
0
INSERT
8
0
2
EPAD
10
1.083372
20
0.367565
41
0.019685
42
0.019685
0
CIRCLE
8
0
10
1.083372
20
0.367565
40
0.010000
0
INSERT
8
0
2
EPAD
10
1.123057
20
0.367565
41
0.019685
42
0.019685
0
CIRCLE
8
0
10
1.123057
20
0.367565
40
0.010000
0
INSERT
8
0
2
EPAD
10
1.162742
20
0.367565
41
0.019685
42
0.019685
0
CIRCLE
8
0
10
1.162742
20
0.367565
40
0.010000
0
INSERT
8
0
2
EPAD
10
1.202427
20
0.367565
41
0.019685
42
0.019685
0
CIRCLE
8
0
10
1.202427
20
0.367565
40
0.010000
0
INSERT
8
0
2
EPAD
10
0.944474
20
0.401933
41
0.019685
42
0.019685
0
CIRCLE
8
0
10
0.944474
20
0.401933
40
0.010000
0
INSERT
8
0
2
EPAD
10
0.984159
20
0.401933
41
0.019685
42
0.019685
0
CIRCLE
8
0
10
0.984159
20
0.401933
40
0.010000
0
INSERT
8
0
2
EPAD
10
1.023844
20
0.401933
41
0.019685
42
0.019685
0
CIRCLE
8
0
10
1.023844
20
0.401933
40
0.010000
0
INSERT
8
0
2
EPAD
10
1.063529
20
0.401933
41
0.019685
42
0.019685
0
CIRCLE
8
0
10
1.063529
20
0.401933
40
0.010000
0
INSERT
8
0
2
EPAD
10
1.103215
20
0.401933
41
0.019685
42
0.019685
0
CIRCLE
8
0
10
1.103215
20
0.401933
40
0.010000
0
INSERT
8
0
2
EPAD
10
1.142900
20
0.401933
41
0.019685
42
0.019685
0
CIRCLE
8
0
10
1.142900
20
0.401933
40
0.010000
0
INSERT
8
0
2
EPAD
10
1.182585
20
0.401933
41
0.019685
42
0.019685
0
CIRCLE
8
0
10
1.182585
20
0.401933
40
0.010000
0
INSERT
8
0
2
EPAD
10
0.964317
20
0.436302
41
0.019685
42
0.019685
0
CIRCLE
8
0
10
0.964317
20
0.436302
40
0.010000
0
INSERT
8
0
2
EPAD
10
1.004002
20
0.436302
41
0.019685
42
0.019685
0
CIRCLE
8
0
10
1.004002
20
0.436302
40
0.010000
0
INSERT
8
0
2
EPAD
10
1.043687
20
0.436302
41
0.019685
42
0.019685
0
CIRCLE
8
0
10
1.043687
20
0.436302
40
0.010000
0
INSERT
8
0
2
EPAD
10
1.023844
20
0.470670
41
0.019685
42
0.019685
0
CIRCLE
8
0
10
1.023844
20
0.470670
40
0.010000
0
INSERT
8
0
2
EPAD
10
0.904789
20
0.608142
41
0.019685
42
0.019685
0
CIRCLE
8
0
10
0.904789
20
0.608142
40
0.010000
0
INSERT
8
0
2
EPAD
10
0.944474
20
0.608142
41
0.019685
42
0.019685
0
CIRCLE
8
0
10
0.944474
20
0.608142
40
0.010000
0
INSERT
8
0
2
EPAD
10
0.884947
20
0.642510
41
0.019685
42
0.019685
0
CIRCLE
8
0
10
0.884947
20
0.642510
40
0.010000
0
INSERT
8
0
2
EPAD
10
0.924632
20
0.642510
41
0.019685
42
0.019685
0
CIRCLE
8
0
10
0.924632
20
0.642510
40
0.010000
0
INSERT
8
0
2
EPAD
10
0.964317
20
0.642510
41
0.019685
42
0.019685
0
CIRCLE
8
0
10
0.964317
20
0.642510
40
0.010000
0
INSERT
8
0
2
EPAD
10
-0.064463
20
-0.018736
41
0.019685
42
0.019685
0
CIRCLE
8
0
10
-0.064463
20
-0.018736
40
0.010000
0
INSERT
8
0
2
EPAD
10
-0.024778
20
-0.018736
41
0.019685
42
0.019685
0
CIRCLE
8
0
10
-0.024778
20
-0.018736
40
0.010000
0
INSERT
8
0
2
EPAD
10
0.014907
20
-0.018736
41
0.019685
42
0.019685
0
CIRCLE
8
0
10
0.014907
20
-0.018736
40
0.010000
0
INSERT
8
0
2
EPAD
10
-0.322415
20
0.015632
41
0.019685
42
0.019685
0
CIRCLE
8
0
10
-0.322415
20
0.015632
40
0.010000
0
INSERT
8
0
2
EPAD
10
-0.282730
20
0.015632
41
0.019685
42
0.019685
0
CIRCLE
8
0
10
-0.282730
20
0.015632
40
0.010000
0
INSERT
8
0
2
EPAD
10
-0.243045
20
0.015632
41
0.019685
42
0.019685
0
CIRCLE
8
0
10
-0.243045
20
0.015632
40
0.010000
0
INSERT
8
0
2
EPAD
10
-0.123990
20
0.015632
41
0.019685
42
0.019685
0
CIRCLE
8
0
10
-0.123990
20
0.015632
40
0.010000
0
INSERT
8
0
2
EPAD
10
-0.084305
20
0.015632
41
0.019685
42
0.019685
0
CIRCLE
8
0
10
-0.084305
20
0.015632
40
0.010000
0
INSERT
8
0
2
EPAD
10
-0.044620
20
0.015632
41
0.019685
42
0.019685
0
CIRCLE
8
0
10
-0.044620
20
0.015632
40
0.010000
0
INSERT
8
0
2
EPAD
10
-0.004935
20
0.015632
41
0.019685
42
0.019685
0
CIRCLE
8
0
10
-0.004935
20
0.015632
40
0.010000
0
INSERT
8
0
2
EPAD
10
0.034750
20
0.015632
41
0.019685
42
0.019685
0
CIRCLE
8
0
10
0.034750
20
0.015632
40
0.010000
0
INSERT
8
0
2
EPAD
10
0.074435
20
0.015632
41
0.019685
42
0.019685
0
CIRCLE
8
0
10
0.074435
20
0.015632
40
0.010000
0
INSERT
8
0
2
EPAD
10
0.114120
20
0.015632
41
0.019685
42
0.019685
0
CIRCLE
8
0
10
0.114120
20
0.015632
40
0.010000
0
INSERT
8
0
2
EPAD
10
0.153805
20
0.015632
41
0.019685
42
0.019685
0
CIRCLE
8
0
10
0.153805
20
0.015632
40
0.010000
0
INSERT
8
0
2
EPAD
10
0.312545
20
0.015632
41
0.019685
42
0.019685
0
CIRCLE
8
0
10
0.312545
20
0.015632
40
0.010000
0
INSERT
8
0
2
EPAD
10
0.352230
20
0.015632
41
0.019685
42
0.019685
0
CIRCLE
8
0
10
0.352230
20
0.015632
40
0.010000
0
INSERT
8
0
2
EPAD
10
0.391915
20
0.015632
41
0.019685
42
0.019685
0
CIRCLE
8
0
10
0.391915
20
0.015632
40
0.010000
0
INSERT
8
0
2
EPAD
10
-0.104148
20
0.050000
41
0.019685
42
0.019685
0
CIRCLE
8
0
10
-0.104148
20
0.050000
40
0.010000
0
INSERT
8
0
2
EPAD
10
-0.064463
20
0.050000
41
0.019685
42
0.019685
0
CIRCLE
8
0
10
-0.064463
20
0.050000
40
0.010000
0
INSERT
8
0
2
EPAD
10
-0.024778
20
0.050000
41
0.019685
42
0.019685
0
CIRCLE
8
0
10
-0.024778
20
0.050000
40
0.010000
0
INSERT
8
0
2
EPAD
10
0.014907
20
0.050000
41
0.019685
42
0.019685
0
CIRCLE
8
0
10
0.014907
20
0.050000
40
0.010000
0
INSERT
8
0
2
EPAD
10
0.054593
20
0.050000
41
0.019685
42
0.019685
0
CIRCLE
8
0
10
0.054593
20
0.050000
40
0.010000
0
INSERT
8
0
2
EPAD
10
0.094278
20
0.050000
41
0.019685
42
0.019685
0
CIRCLE
8
0
10
0.094278
20
0.050000
40
0.010000
0
INSERT
8
0
2
EPAD
10
0.133963
20
0.050000
41
0.019685
42
0.019685
0
CIRCLE
8
0
10
0.133963
20
0.050000
40
0.010000
0
INSERT
8
0
2
EPAD
10
0.173648
20
0.050000
41
0.019685
42
0.019685
0
CIRCLE
8
0
10
0.173648
20
0.050000
40
0.010000
0
INSERT
8
0
2
EPAD
10
0.332388
20
0.050000
41
0.019685
42
0.019685
0
CIRCLE
8
0
10
0.332388
20
0.050000
40
0.010000
0
INSERT
8
0
2
EPAD
10
0.372073
20
0.050000
41
0.019685
42
0.019685
0
CIRCLE
8
0
10
0.372073
20
0.050000
40
0.010000
0
INSERT
8
0
2
EPAD
10
-0.084305
20
0.084368
41
0.019685
42
0.019685
0
CIRCLE
8
0
10
-0.084305
20
0.084368
40
0.010000
0
INSERT
8
0
2
EPAD
10
-0.044620
20
0.084368
41
0.019685
42
0.019685
0
CIRCLE
8
0
10
-0.044620
20
0.084368
40
0.010000
0
INSERT
8
0
2
EPAD
10
-0.004935
20
0.084368
41
0.019685
42
0.019685
0
CIRCLE
8
0
10
-0.004935
20
0.084368
40
0.010000
0
INSERT
8
0
2
EPAD
10
0.034750
20
0.084368
41
0.019685
42
0.019685
0
CIRCLE
8
0
10
0.034750
20
0.084368
40
0.010000
0
INSERT
8
0
2
EPAD
10
0.074435
20
0.084368
41
0.019685
42
0.019685
0
CIRCLE
8
0
10
0.074435
20
0.084368
40
0.010000
0
INSERT
8
0
2
EPAD
10
0.114120
20
0.084368
41
0.019685
42
0.019685
0
CIRCLE
8
0
10
0.114120
20
0.084368
40
0.010000
0
INSERT
8
0
2
EPAD
10
0.153805
20
0.084368
41
0.019685
42
0.019685
0
CIRCLE
8
0
10
0.153805
20
0.084368
40
0.010000
0
INSERT
8
0
2
EPAD
10
0.312545
20
0.084368
41
0.019685
42
0.019685
0
CIRCLE
8
0
10
0.312545
20
0.084368
40
0.010000
0
INSERT
8
0
2
EPAD
10
0.352230
20
0.084368
41
0.019685
42
0.019685
0
CIRCLE
8
0
10
0.352230
20
0.084368
40
0.010000
0
INSERT
8
0
2
EPAD
10
-0.104148
20
0.118736
41
0.019685
42
0.019685
0
CIRCLE
8
0
10
-0.104148
20
0.118736
40
0.010000
0
INSERT
8
0
2
EPAD
10
-0.064463
20
0.118736
41
0.019685
42
0.019685
0
CIRCLE
8
0
10
-0.064463
20
0.118736
40
0.010000
0
INSERT
8
0
2
EPAD
10
-0.024778
20
0.118736
41
0.019685
42
0.019685
0
CIRCLE
8
0
10
-0.024778
20
0.118736
40
0.010000
0
INSERT
8
0
2
EPAD
10
0.014907
20
0.118736
41
0.019685
42
0.019685
0
CIRCLE
8
0
10
0.014907
20
0.118736
40
0.010000
0
INSERT
8
0
2
EPAD
10
0.054593
20
0.118736
41
0.019685
42
0.019685
0
CIRCLE
8
0
10
0.054593
20
0.118736
40
0.010000
0
INSERT
8
0
2
EPAD
10
0.094278
20
0.118736
41
0.019685
42
0.019685
0
CIRCLE
8
0
10
0.094278
20
0.118736
40
0.010000
0
INSERT
8
0
2
EPAD
10
0.133963
20
0.118736
41
0.019685
42
0.019685
0
CIRCLE
8
0
10
0.133963
20
0.118736
40
0.010000
0
INSERT
8
0
2
EPAD
10
0.173648
20
0.118736
41
0.019685
42
0.019685
0
CIRCLE
8
0
10
0.173648
20
0.118736
40
0.010000
0
INSERT
8
0
2
EPAD
10
0.332388
20
0.118736
41
0.019685
42
0.019685
0
CIRCLE
8
0
10
0.332388
20
0.118736
40
0.010000
0
INSERT
8
0
2
EPAD
10
-0.956822
20
0.055057
41
0.019685
42
0.019685
0
CIRCLE
8
0
10
-0.956822
20
0.055057
40
0.010000
0
INSERT
8
0
2
EPAD
10
-0.956600
20
0.082500
41
0.019685
42
0.019685
0
CIRCLE
8
0
10
-0.956600
20
0.082500
40
0.010000
0
INSERT
8
0
2
EPAD
10
-0.926600
20
0.082500
41
0.019685
42
0.019685
0
CIRCLE
8
0
10
-0.926600
20
0.082500
40
0.010000
0
INSERT
8
0
2
EPAD
10
-0.926600
20
0.112500
41
0.019685
42
0.019685
0
CIRCLE
8
0
10
-0.926600
20
0.112500
40
0.010000
0
INSERT
8
0
2
EPAD
10
-0.957588
20
0.112676
41
0.019685
42
0.019685
0
CIRCLE
8
0
10
-0.957588
20
0.112676
40
0.010000
0
INSERT
8
0
2
EPAD
10
-0.917133
20
0.143073
41
0.019685
42
0.019685
0
CIRCLE
8
0
10
-0.917133
20
0.143073
40
0.010000
0
INSERT
8
0
2
EPAD
10
-0.551350
20
0.045009
41
0.019685
42
0.019685
0
CIRCLE
8
0
10
-0.551350
20
0.045009
40
0.010000
0
INSERT
8
0
2
EPAD
10
-0.509958
20
0.067619
41
0.019685
42
0.019685
0
CIRCLE
8
0
10
-0.509958
20
0.067619
40
0.010000
0
INSERT
8
0
2
EPAD
10
-0.536600
20
0.067500
41
0.019685
42
0.019685
0
CIRCLE
8
0
10
-0.536600
20
0.067500
40
0.010000
0
INSERT
8
0
2
EPAD
10
-0.577159
20
0.094413
41
0.019685
42
0.019685
0
CIRCLE
8
0
10
-0.577159
20
0.094413
40
0.010000
0
INSERT
8
0
2
EPAD
10
-0.515849
20
0.140541
41
0.019685
42
0.019685
0
CIRCLE
8
0
10
-0.515849
20
0.140541
40
0.010000
0
INSERT
8
0
2
EPAD
10
-0.515465
20
0.115555
41
0.019685
42
0.019685
0
CIRCLE
8
0
10
-0.515465
20
0.115555
40
0.010000
0
INSERT
8
0
2
EPAD
10
-0.541600
20
0.107500
41
0.019685
42
0.019685
0
CIRCLE
8
0
10
-0.541600
20
0.107500
40
0.010000
0
INSERT
8
0
2
EPAD
10
-0.524882
20
0.091722
41
0.019685
42
0.019685
0
CIRCLE
8
0
10
-0.524882
20
0.091722
40
0.010000
0
INSERT
8
0
2
EPAD
10
0.717427
20
0.125316
41
0.019685
42
0.019685
0
CIRCLE
8
0
10
0.717427
20
0.125316
40
0.010000
0
INSERT
8
0
2
EPAD
10
0.697585
20
0.159684
41
0.019685
42
0.019685
0
CIRCLE
8
0
10
0.697585
20
0.159684
40
0.010000
0
INSERT
8
0
2
EPAD
10
0.677742
20
0.194052
41
0.019685
42
0.019685
0
CIRCLE
8
0
10
0.677742
20
0.194052
40
0.010000
0
INSERT
8
0
2
EPAD
10
0.717427
20
0.194052
41
0.019685
42
0.019685
0
CIRCLE
8
0
10
0.717427
20
0.194052
40
0.010000
0
INSERT
8
0
2
EPAD
10
0.697585
20
0.228420
41
0.019685
42
0.019685
0
CIRCLE
8
0
10
0.697585
20
0.228420
40
0.010000
0
INSERT
8
0
2
EPAD
10
0.671346
20
0.133904
41
0.019685
42
0.019685
0
CIRCLE
8
0
10
0.671346
20
0.133904
40
0.010000
0
INSERT
8
0
2
EPAD
10
0.698400
20
0.102500
41
0.019685
42
0.019685
0
CIRCLE
8
0
10
0.698400
20
0.102500
40
0.010000
0
INSERT
8
0
2
EPAD
10
0.699769
20
0.055888
41
0.019685
42
0.019685
0
CIRCLE
8
0
10
0.699769
20
0.055888
40
0.010000
0
INSERT
8
0
2
EPAD
10
0.733701
20
0.089530
41
0.019685
42
0.019685
0
CIRCLE
8
0
10
0.733701
20
0.089530
40
0.010000
0
INSERT
8
0
2
EPAD
10
1.060067
20
0.099123
41
0.019685
42
0.019685
0
CIRCLE
8
0
10
1.060067
20
0.099123
40
0.010000
0
INSERT
8
0
2
EPAD
10
1.080110
20
0.118731
41
0.019685
42
0.019685
0
CIRCLE
8
0
10
1.080110
20
0.118731
40
0.010000
0
INSERT
8
0
2
EPAD
10
1.113400
20
0.137500
41
0.019685
42
0.019685
0
CIRCLE
8
0
10
1.113400
20
0.137500
40
0.010000
0
INSERT
8
0
2
EPAD
10
1.125862
20
0.117859
41
0.019685
42
0.019685
0
CIRCLE
8
0
10
1.125862
20
0.117859
40
0.010000
0
INSERT
8
0
2
EPAD
10
1.098400
20
0.097500
41
0.019685
42
0.019685
0
CIRCLE
8
0
10
1.098400
20
0.097500
40
0.010000
0
INSERT
8
0
2
EPAD
10
1.088400
20
0.062500
41
0.019685
42
0.019685
0
CIRCLE
8
0
10
1.088400
20
0.062500
40
0.010000
0
INSERT
8
0
2
EPAD
10
1.121504
20
0.082130
41
0.019685
42
0.019685
0
CIRCLE
8
0
10
1.121504
20
0.082130
40
0.010000
0
INSERT
8
0
2
EPAD
10
-1.058648
20
-0.051083
41
0.019685
42
0.019685
0
CIRCLE
8
0
10
-1.058648
20
-0.051083
40
0.010000
0
INSERT
8
0
2
EPAD
10
-1.013533
20
-0.050093
41
0.019685
42
0.019685
0
CIRCLE
8
0
10
-1.013533
20
-0.050093
40
0.010000
0
INSERT
8
0
2
EPAD
10
-1.013066
20
-0.083442
41
0.019685
42
0.019685
0
CIRCLE
8
0
10
-1.013066
20
-0.083442
40
0.010000
0
INSERT
8
0
2
EPAD
10
-1.057142
20
-0.083675
41
0.019685
42
0.019685
0
CIRCLE
8
0
10
-1.057142
20
-0.083675
40
0.010000
0
INSERT
8
0
2
EPAD
10
-1.105417
20
-0.084841
41
0.019685
42
0.019685
0
CIRCLE
8
0
10
-1.105417
20
-0.084841
40
0.010000
0
INSERT
8
0
2
EPAD
10
-1.105650
20
-0.051493
41
0.019685
42
0.019685
0
CIRCLE
8
0
10
-1.105650
20
-0.051493
40
0.010000
0
INSERT
8
0
2
EPAD
10
-1.106443
20
-0.017500
41
0.019685
42
0.019685
0
CIRCLE
8
0
10
-1.106443
20
-0.017500
40
0.010000
0
INSERT
8
0
2
EPAD
10
-1.058775
20
-0.019310
41
0.019685
42
0.019685
0
CIRCLE
8
0
10
-1.058775
20
-0.019310
40
0.010000
0
INSERT
8
0
2
EPAD
10
-0.606021
20
-0.085376
41
0.019685
42
0.019685
0
CIRCLE
8
0
10
-0.606021
20
-0.085376
40
0.010000
0
INSERT
8
0
2
EPAD
10
-0.628453
20
-0.085376
41
0.019685
42
0.019685
0
CIRCLE
8
0
10
-0.628453
20
-0.085376
40
0.010000
0
INSERT
8
0
2
EPAD
10
-0.654391
20
-0.085376
41
0.019685
42
0.019685
0
CIRCLE
8
0
10
-0.654391
20
-0.085376
40
0.010000
0
INSERT
8
0
2
EPAD
10
-0.679627
20
-0.084675
41
0.019685
42
0.019685
0
CIRCLE
8
0
10
-0.679627
20
-0.084675
40
0.010000
0
INSERT
8
0
2
EPAD
10
-0.701443
20
-0.084675
41
0.019685
42
0.019685
0
CIRCLE
8
0
10
-0.701443
20
-0.084675
40
0.010000
0
INSERT
8
0
2
EPAD
10
0.549813
20
-0.057814
41
0.019685
42
0.019685
0
CIRCLE
8
0
10
0.549813
20
-0.057814
40
0.010000
0
INSERT
8
0
2
EPAD
10
0.549813
20
-0.084537
41
0.019685
42
0.019685
0
CIRCLE
8
0
10
0.549813
20
-0.084537
40
0.010000
0
INSERT
8
0
2
EPAD
10
0.577708
20
-0.084068
41
0.019685
42
0.019685
0
CIRCLE
8
0
10
0.577708
20
-0.084068
40
0.010000
0
INSERT
8
0
2
EPAD
10
0.577474
20
-0.056642
41
0.019685
42
0.019685
0
CIRCLE
8
0
10
0.577474
20
-0.056642
40
0.010000
0
INSERT
8
0
2
EPAD
10
0.607479
20
-0.056173
41
0.019685
42
0.019685
0
CIRCLE
8
0
10
0.607479
20
-0.056173
40
0.010000
0
INSERT
8
0
2
EPAD
10
0.608557
20
-0.082500
41
0.019685
42
0.019685
0
CIRCLE
8
0
10
0.608557
20
-0.082500
40
0.010000
0
INSERT
8
0
2
EPAD
10
0.638557
20
-0.082500
41
0.019685
42
0.019685
0
CIRCLE
8
0
10
0.638557
20
-0.082500
40
0.010000
0
INSERT
8
0
2
EPAD
10
0.638187
20
-0.055704
41
0.019685
42
0.019685
0
CIRCLE
8
0
10
0.638187
20
-0.055704
40
0.010000
0
INSERT
8
0
2
EPAD
10
0.935828
20
-0.056089
41
0.019685
42
0.019685
0
CIRCLE
8
0
10
0.935828
20
-0.056089
40
0.010000
0
INSERT
8
0
2
EPAD
10
0.936531
20
-0.082109
41
0.019685
42
0.019685
0
CIRCLE
8
0
10
0.936531
20
-0.082109
40
0.010000
0
INSERT
8
0
2
EPAD
10
0.968557
20
-0.082500
41
0.019685
42
0.019685
0
CIRCLE
8
0
10
0.968557
20
-0.082500
40
0.010000
0
INSERT
8
0
2
EPAD
10
0.968646
20
-0.055855
41
0.019685
42
0.019685
0
CIRCLE
8
0
10
0.968646
20
-0.055855
40
0.010000
0
INSERT
8
0
2
EPAD
10
1.000292
20
-0.055386
41
0.019685
42
0.019685
0
CIRCLE
8
0
10
1.000292
20
-0.055386
40
0.010000
0
INSERT
8
0
2
EPAD
10
1.000526
20
-0.081874
41
0.019685
42
0.019685
0
CIRCLE
8
0
10
1.000526
20
-0.081874
40
0.010000
0
INSERT
8
0
2
EPAD
10
1.028557
20
-0.082500
41
0.019685
42
0.019685
0
CIRCLE
8
0
10
1.028557
20
-0.082500
40
0.010000
0
INSERT
8
0
2
EPAD
10
1.027952
20
-0.053745
41
0.019685
42
0.019685
0
CIRCLE
8
0
10
1.027952
20
-0.053745
40
0.010000
0
INSERT
8
0
2
EPAD
10
-0.671443
20
0.512500
41
0.120000
42
0.120000
0
CIRCLE
8
0
10
-0.671443
20
0.512500
40
0.030000
0
INSERT
8
0
2
EPAD
10
-0.871443
20
0.512500
41
0.120000
42
0.120000
0
CIRCLE
8
0
10
-0.871443
20
0.512500
40
0.030000
0
INSERT
8
0
2
EPAD
10
0.128557
20
0.512500
41
0.120000
42
0.120000
0
CIRCLE
8
0
10
0.128557
20
0.512500
40
0.030000
0
INSERT
8
0
2
EPAD
10
-0.071443
20
0.512500
41
0.120000
42
0.120000
0
CIRCLE
8
0
10
-0.071443
20
0.512500
40
0.030000
0
INSERT
8
0
2
EPAD
10
-1.132860
20
-0.547343
41
0.122835
42
0.122835
0
CIRCLE
8
0
10
-1.132860
20
-0.547343
40
0.010000
0
INSERT
8
0
2
EPAD
10
1.189974
20
-0.547343
41
0.122835
42
0.122835
0
CIRCLE
8
0
10
1.189974
20
-0.547343
40
0.010000
0
INSERT
8
0
2
EPAD
10
1.189974
20
0.594390
41
0.122835
42
0.122835
0
CIRCLE
8
0
10
1.189974
20
0.594390
40
0.010000
0
INSERT
8
0
2
EPAD
10
-1.132860
20
0.594390
41
0.122835
42
0.122835
0
CIRCLE
8
0
10
-1.132860
20
0.594390
40
0.010000
0
INSERT
8
0
2
EPAD
10
-0.271443
20
0.512500
41
0.120000
42
0.120000
0
CIRCLE
8
0
10
-0.271443
20
0.512500
40
0.030000
0
INSERT
8
0
2
EPAD
10
-0.471443
20
0.512500
41
0.120000
42
0.120000
0
CIRCLE
8
0
10
-0.471443
20
0.512500
40
0.030000
0
INSERT
8
0
2
EPAD
10
-0.837585
20
-0.291634
41
0.070000
42
0.070000
0
CIRCLE
8
0
10
-0.837585
20
-0.291634
40
0.025000
0
INSERT
8
0
2
EPAD
10
-0.837585
20
0.108366
41
0.070000
42
0.070000
0
CIRCLE
8
0
10
-0.837585
20
0.108366
40
0.025000
0
INSERT
8
0
2
EPAD
10
-0.440970
20
-0.291634
41
0.070000
42
0.070000
0
CIRCLE
8
0
10
-0.440970
20
-0.291634
40
0.025000
0
INSERT
8
0
2
EPAD
10
-0.440970
20
0.108366
41
0.070000
42
0.070000
0
CIRCLE
8
0
10
-0.440970
20
0.108366
40
0.025000
0
INSERT
8
0
2
EPAD
10
0.528557
20
0.512500
41
0.120000
42
0.120000
0
CIRCLE
8
0
10
0.528557
20
0.512500
40
0.030000
0
INSERT
8
0
2
EPAD
10
0.328557
20
0.512500
41
0.120000
42
0.120000
0
CIRCLE
8
0
10
0.328557
20
0.512500
40
0.030000
0
INSERT
8
0
2
EPAD
10
0.928557
20
0.512500
41
0.120000
42
0.120000
0
CIRCLE
8
0
10
0.928557
20
0.512500
40
0.030000
0
INSERT
8
0
2
EPAD
10
0.728557
20
0.512500
41
0.120000
42
0.120000
0
CIRCLE
8
0
10
0.728557
20
0.512500
40
0.030000
0
INSERT
8
0
2
EPAD
10
0.818872
20
-0.285335
41
0.070000
42
0.070000
0
CIRCLE
8
0
10
0.818872
20
-0.285335
40
0.025000
0
INSERT
8
0
2
EPAD
10
0.818872
20
0.114665
41
0.070000
42
0.070000
0
CIRCLE
8
0
10
0.818872
20
0.114665
40
0.025000
0
INSERT
8
0
2
EPAD
10
1.204030
20
-0.281634
41
0.070000
42
0.070000
0
CIRCLE
8
0
10
1.204030
20
-0.281634
40
0.025000
0
INSERT
8
0
2
EPAD
10
1.204030
20
0.118366
41
0.070000
42
0.070000
0
CIRCLE
8
0
10
1.204030
20
0.118366
40
0.025000
0
POLYLINE
8
0
66
1
70
1
40
0
41
0
0
VERTEX
8
0
10
-0.539443
20
-0.540453
0
VERTEX
8
0
10
-0.503443
20
-0.540453
0
VERTEX
8
0
10
-0.500989
20
-0.540691
0
VERTEX
8
0
10
-0.498720
20
-0.541378
0
VERTEX
8
0
10
-0.496680
20
-0.542470
0
VERTEX
8
0
10
-0.494912
20
-0.543922
0
VERTEX
8
0
10
-0.493460
20
-0.545690
0
VERTEX
8
0
10
-0.492369
20
-0.547730
0
VERTEX
8
0
10
-0.491682
20
-0.549999
0
VERTEX
8
0
10
-0.491443
20
-0.552453
0
VERTEX
8
0
10
-0.491443
20
-0.628453
0
VERTEX
8
0
10
-0.491682
20
-0.630906
0
VERTEX
8
0
10
-0.492369
20
-0.633176
0
VERTEX
8
0
10
-0.493460
20
-0.635216
0
VERTEX
8
0
10
-0.494912
20
-0.636984
0
VERTEX
8
0
10
-0.496680
20
-0.638436
0
VERTEX
8
0
10
-0.498720
20
-0.639527
0
VERTEX
8
0
10
-0.500989
20
-0.640214
0
VERTEX
8
0
10
-0.503443
20
-0.640453
0
VERTEX
8
0
10
-0.539443
20
-0.640453
0
VERTEX
8
0
10
-0.541896
20
-0.640214
0
VERTEX
8
0
10
-0.544166
20
-0.639527
0
VERTEX
8
0
10
-0.546206
20
-0.638436
0
VERTEX
8
0
10
-0.547974
20
-0.636984
0
VERTEX
8
0
10
-0.549426
20
-0.635216
0
VERTEX
8
0
10
-0.550517
20
-0.633176
0
VERTEX
8
0
10
-0.551204
20
-0.630906
0
VERTEX
8
0
10
-0.551443
20
-0.628453
0
VERTEX
8
0
10
-0.551443
20
-0.552453
0
VERTEX
8
0
10
-0.551204
20
-0.549999
0
VERTEX
8
0
10
-0.550517
20
-0.547730
0
VERTEX
8
0
10
-0.549426
20
-0.545690
0
VERTEX
8
0
10
-0.547974
20
-0.543922
0
VERTEX
8
0
10
-0.546206
20
-0.542470
0
VERTEX
8
0
10
-0.544166
20
-0.541378
0
VERTEX
8
0
10
-0.541896
20
-0.540691
0
VERTEX
8
0
10
-0.539443
20
-0.540453
0
SEQEND
8
0
0
CIRCLE
8
0
10
-0.521443
20
-0.590453
40
0.020000
0
POLYLINE
8
0
66
1
70
1
40
0
41
0
0
VERTEX
8
0
10
-0.439443
20
-0.540453
0
VERTEX
8
0
10
-0.403443
20
-0.540453
0
VERTEX
8
0
10
-0.400989
20
-0.540691
0
VERTEX
8
0
10
-0.398720
20
-0.541378
0
VERTEX
8
0
10
-0.396680
20
-0.542470
0
VERTEX
8
0
10
-0.394912
20
-0.543922
0
VERTEX
8
0
10
-0.393460
20
-0.545690
0
VERTEX
8
0
10
-0.392369
20
-0.547730
0
VERTEX
8
0
10
-0.391682
20
-0.549999
0
VERTEX
8
0
10
-0.391443
20
-0.552453
0
VERTEX
8
0
10
-0.391443
20
-0.628453
0
VERTEX
8
0
10
-0.391682
20
-0.630906
0
VERTEX
8
0
10
-0.392369
20
-0.633176
0
VERTEX
8
0
10
-0.393460
20
-0.635216
0
VERTEX
8
0
10
-0.394912
20
-0.636984
0
VERTEX
8
0
10
-0.396680
20
-0.638436
0
VERTEX
8
0
10
-0.398720
20
-0.639527
0
VERTEX
8
0
10
-0.400989
20
-0.640214
0
VERTEX
8
0
10
-0.403443
20
-0.640453
0
VERTEX
8
0
10
-0.439443
20
-0.640453
0
VERTEX
8
0
10
-0.441896
20
-0.640214
0
VERTEX
8
0
10
-0.444166
20
-0.639527
0
VERTEX
8
0
10
-0.446206
20
-0.638436
0
VERTEX
8
0
10
-0.447974
20
-0.636984
0
VERTEX
8
0
10
-0.449426
20
-0.635216
0
VERTEX
8
0
10
-0.450517
20
-0.633176
0
VERTEX
8
0
10
-0.451204
20
-0.630906
0
VERTEX
8
0
10
-0.451443
20
-0.628453
0
VERTEX
8
0
10
-0.451443
20
-0.552453
0
VERTEX
8
0
10
-0.451204
20
-0.549999
0
VERTEX
8
0
10
-0.450517
20
-0.547730
0
VERTEX
8
0
10
-0.449426
20
-0.545690
0
VERTEX
8
0
10
-0.447974
20
-0.543922
0
VERTEX
8
0
10
-0.446206
20
-0.542470
0
VERTEX
8
0
10
-0.444166
20
-0.541378
0
VERTEX
8
0
10
-0.441896
20
-0.540691
0
VERTEX
8
0
10
-0.439443
20
-0.540453
0
SEQEND
8
0
0
CIRCLE
8
0
10
-0.421443
20
-0.590453
40
0.020000
0
POLYLINE
8
0
66
1
70
1
40
0
41
0
0
VERTEX
8
0
10
-0.339443
20
-0.540453
0
VERTEX
8
0
10
-0.303443
20
-0.540453
0
VERTEX
8
0
10
-0.300989
20
-0.540691
0
VERTEX
8
0
10
-0.298720
20
-0.541378
0
VERTEX
8
0
10
-0.296680
20
-0.542470
0
VERTEX
8
0
10
-0.294912
20
-0.543922
0
VERTEX
8
0
10
-0.293460
20
-0.545690
0
VERTEX
8
0
10
-0.292369
20
-0.547730
0
VERTEX
8
0
10
-0.291682
20
-0.549999
0
VERTEX
8
0
10
-0.291443
20
-0.552453
0
VERTEX
8
0
10
-0.291443
20
-0.628453
0
VERTEX
8
0
10
-0.291682
20
-0.630906
0
VERTEX
8
0
10
-0.292369
20
-0.633176
0
VERTEX
8
0
10
-0.293460
20
-0.635216
0
VERTEX
8
0
10
-0.294912
20
-0.636984
0
VERTEX
8
0
10
-0.296680
20
-0.638436
0
VERTEX
8
0
10
-0.298720
20
-0.639527
0
VERTEX
8
0
10
-0.300989
20
-0.640214
0
VERTEX
8
0
10
-0.303443
20
-0.640453
0
VERTEX
8
0
10
-0.339443
20
-0.640453
0
VERTEX
8
0
10
-0.341896
20
-0.640214
0
VERTEX
8
0
10
-0.344166
20
-0.639527
0
VERTEX
8
0
10
-0.346206
20
-0.638436
0
VERTEX
8
0
10
-0.347974
20
-0.636984
0
VERTEX
8
0
10
-0.349426
20
-0.635216
0
VERTEX
8
0
10
-0.350517
20
-0.633176
0
VERTEX
8
0
10
-0.351204
20
-0.630906
0
VERTEX
8
0
10
-0.351443
20
-0.628453
0
VERTEX
8
0
10
-0.351443
20
-0.552453
0
VERTEX
8
0
10
-0.351204
20
-0.549999
0
VERTEX
8
0
10
-0.350517
20
-0.547730
0
VERTEX
8
0
10
-0.349426
20
-0.545690
0
VERTEX
8
0
10
-0.347974
20
-0.543922
0
VERTEX
8
0
10
-0.346206
20
-0.542470
0
VERTEX
8
0
10
-0.344166
20
-0.541378
0
VERTEX
8
0
10
-0.341896
20
-0.540691
0
VERTEX
8
0
10
-0.339443
20
-0.540453
0
SEQEND
8
0
0
CIRCLE
8
0
10
-0.321443
20
-0.590453
40
0.020000
0
POLYLINE
8
0
66
1
70
1
40
0
41
0
0
VERTEX
8
0
10
-0.239443
20
-0.540453
0
VERTEX
8
0
10
-0.203443
20
-0.540453
0
VERTEX
8
0
10
-0.200989
20
-0.540691
0
VERTEX
8
0
10
-0.198720
20
-0.541378
0
VERTEX
8
0
10
-0.196680
20
-0.542470
0
VERTEX
8
0
10
-0.194912
20
-0.543922
0
VERTEX
8
0
10
-0.193460
20
-0.545690
0
VERTEX
8
0
10
-0.192369
20
-0.547730
0
VERTEX
8
0
10
-0.191682
20
-0.549999
0
VERTEX
8
0
10
-0.191443
20
-0.552453
0
VERTEX
8
0
10
-0.191443
20
-0.628453
0
VERTEX
8
0
10
-0.191682
20
-0.630906
0
VERTEX
8
0
10
-0.192369
20
-0.633176
0
VERTEX
8
0
10
-0.193460
20
-0.635216
0
VERTEX
8
0
10
-0.194912
20
-0.636984
0
VERTEX
8
0
10
-0.196680
20
-0.638436
0
VERTEX
8
0
10
-0.198720
20
-0.639527
0
VERTEX
8
0
10
-0.200989
20
-0.640214
0
VERTEX
8
0
10
-0.203443
20
-0.640453
0
VERTEX
8
0
10
-0.239443
20
-0.640453
0
VERTEX
8
0
10
-0.241896
20
-0.640214
0
VERTEX
8
0
10
-0.244166
20
-0.639527
0
VERTEX
8
0
10
-0.246206
20
-0.638436
0
VERTEX
8
0
10
-0.247974
20
-0.636984
0
VERTEX
8
0
10
-0.249426
20
-0.635216
0
VERTEX
8
0
10
-0.250517
20
-0.633176
0
VERTEX
8
0
10
-0.251204
20
-0.630906
0
VERTEX
8
0
10
-0.251443
20
-0.628453
0
VERTEX
8
0
10
-0.251443
20
-0.552453
0
VERTEX
8
0
10
-0.251204
20
-0.549999
0
VERTEX
8
0
10
-0.250517
20
-0.547730
0
VERTEX
8
0
10
-0.249426
20
-0.545690
0
VERTEX
8
0
10
-0.247974
20
-0.543922
0
VERTEX
8
0
10
-0.246206
20
-0.542470
0
VERTEX
8
0
10
-0.244166
20
-0.541378
0
VERTEX
8
0
10
-0.241896
20
-0.540691
0
VERTEX
8
0
10
-0.239443
20
-0.540453
0
SEQEND
8
0
0
CIRCLE
8
0
10
-0.221443
20
-0.590453
40
0.020000
0
POLYLINE
8
0
66
1
70
1
40
0
41
0
0
VERTEX
8
0
10
-0.139443
20
-0.540453
0
VERTEX
8
0
10
-0.103443
20
-0.540453
0
VERTEX
8
0
10
-0.100989
20
-0.540691
0
VERTEX
8
0
10
-0.098720
20
-0.541378
0
VERTEX
8
0
10
-0.096680
20
-0.542470
0
VERTEX
8
0
10
-0.094912
20
-0.543922
0
VERTEX
8
0
10
-0.093460
20
-0.545690
0
VERTEX
8
0
10
-0.092369
20
-0.547730
0
VERTEX
8
0
10
-0.091682
20
-0.549999
0
VERTEX
8
0
10
-0.091443
20
-0.552453
0
VERTEX
8
0
10
-0.091443
20
-0.628453
0
VERTEX
8
0
10
-0.091682
20
-0.630906
0
VERTEX
8
0
10
-0.092369
20
-0.633176
0
VERTEX
8
0
10
-0.093460
20
-0.635216
0
VERTEX
8
0
10
-0.094912
20
-0.636984
0
VERTEX
8
0
10
-0.096680
20
-0.638436
0
VERTEX
8
0
10
-0.098720
20
-0.639527
0
VERTEX
8
0
10
-0.100989
20
-0.640214
0
VERTEX
8
0
10
-0.103443
20
-0.640453
0
VERTEX
8
0
10
-0.139443
20
-0.640453
0
VERTEX
8
0
10
-0.141896
20
-0.640214
0
VERTEX
8
0
10
-0.144166
20
-0.639527
0
VERTEX
8
0
10
-0.146206
20
-0.638436
0
VERTEX
8
0
10
-0.147974
20
-0.636984
0
VERTEX
8
0
10
-0.149426
20
-0.635216
0
VERTEX
8
0
10
-0.150517
20
-0.633176
0
VERTEX
8
0
10
-0.151204
20
-0.630906
0
VERTEX
8
0
10
-0.151443
20
-0.628453
0
VERTEX
8
0
10
-0.151443
20
-0.552453
0
VERTEX
8
0
10
-0.151204
20
-0.549999
0
VERTEX
8
0
10
-0.150517
20
-0.547730
0
VERTEX
8
0
10
-0.149426
20
-0.545690
0
VERTEX
8
0
10
-0.147974
20
-0.543922
0
VERTEX
8
0
10
-0.146206
20
-0.542470
0
VERTEX
8
0
10
-0.144166
20
-0.541378
0
VERTEX
8
0
10
-0.141896
20
-0.540691
0
VERTEX
8
0
10
-0.139443
20
-0.540453
0
SEQEND
8
0
0
CIRCLE
8
0
10
-0.121443
20
-0.590453
40
0.020000
0
POLYLINE
8
0
66
1
70
1
40
0
41
0
0
VERTEX
8
0
10
-0.039443
20
-0.540453
0
VERTEX
8
0
10
-0.003443
20
-0.540453
0
VERTEX
8
0
10
-0.000989
20
-0.540691
0
VERTEX
8
0
10
0.001280
20
-0.541378
0
VERTEX
8
0
10
0.003320
20
-0.542470
0
VERTEX
8
0
10
0.005088
20
-0.543922
0
VERTEX
8
0
10
0.006540
20
-0.545690
0
VERTEX
8
0
10
0.007631
20
-0.547730
0
VERTEX
8
0
10
0.008318
20
-0.549999
0
VERTEX
8
0
10
0.008557
20
-0.552453
0
VERTEX
8
0
10
0.008557
20
-0.628453
0
VERTEX
8
0
10
0.008318
20
-0.630906
0
VERTEX
8
0
10
0.007631
20
-0.633176
0
VERTEX
8
0
10
0.006540
20
-0.635216
0
VERTEX
8
0
10
0.005088
20
-0.636984
0
VERTEX
8
0
10
0.003320
20
-0.638436
0
VERTEX
8
0
10
0.001280
20
-0.639527
0
VERTEX
8
0
10
-0.000989
20
-0.640214
0
VERTEX
8
0
10
-0.003443
20
-0.640453
0
VERTEX
8
0
10
-0.039443
20
-0.640453
0
VERTEX
8
0
10
-0.041896
20
-0.640214
0
VERTEX
8
0
10
-0.044166
20
-0.639527
0
VERTEX
8
0
10
-0.046206
20
-0.638436
0
VERTEX
8
0
10
-0.047974
20
-0.636984
0
VERTEX
8
0
10
-0.049426
20
-0.635216
0
VERTEX
8
0
10
-0.050517
20
-0.633176
0
VERTEX
8
0
10
-0.051204
20
-0.630906
0
VERTEX
8
0
10
-0.051443
20
-0.628453
0
VERTEX
8
0
10
-0.051443
20
-0.552453
0
VERTEX
8
0
10
-0.051204
20
-0.549999
0
VERTEX
8
0
10
-0.050517
20
-0.547730
0
VERTEX
8
0
10
-0.049426
20
-0.545690
0
VERTEX
8
0
10
-0.047974
20
-0.543922
0
VERTEX
8
0
10
-0.046206
20
-0.542470
0
VERTEX
8
0
10
-0.044166
20
-0.541378
0
VERTEX
8
0
10
-0.041896
20
-0.540691
0
VERTEX
8
0
10
-0.039443
20
-0.540453
0
SEQEND
8
0
0
CIRCLE
8
0
10
-0.021443
20
-0.590453
40
0.020000
0
POLYLINE
8
0
66
1
70
1
40
0
41
0
0
VERTEX
8
0
10
0.060557
20
-0.540453
0
VERTEX
8
0
10
0.096557
20
-0.540453
0
VERTEX
8
0
10
0.099011
20
-0.540691
0
VERTEX
8
0
10
0.101280
20
-0.541378
0
VERTEX
8
0
10
0.103320
20
-0.542470
0
VERTEX
8
0
10
0.105088
20
-0.543922
0
VERTEX
8
0
10
0.106540
20
-0.545690
0
VERTEX
8
0
10
0.107631
20
-0.547730
0
VERTEX
8
0
10
0.108318
20
-0.549999
0
VERTEX
8
0
10
0.108557
20
-0.552453
0
VERTEX
8
0
10
0.108557
20
-0.628453
0
VERTEX
8
0
10
0.108318
20
-0.630906
0
VERTEX
8
0
10
0.107631
20
-0.633176
0
VERTEX
8
0
10
0.106540
20
-0.635216
0
VERTEX
8
0
10
0.105088
20
-0.636984
0
VERTEX
8
0
10
0.103320
20
-0.638436
0
VERTEX
8
0
10
0.101280
20
-0.639527
0
VERTEX
8
0
10
0.099011
20
-0.640214
0
VERTEX
8
0
10
0.096557
20
-0.640453
0
VERTEX
8
0
10
0.060557
20
-0.640453
0
VERTEX
8
0
10
0.058104
20
-0.640214
0
VERTEX
8
0
10
0.055834
20
-0.639527
0
VERTEX
8
0
10
0.053794
20
-0.638436
0
VERTEX
8
0
10
0.052026
20
-0.636984
0
VERTEX
8
0
10
0.050574
20
-0.635216
0
VERTEX
8
0
10
0.049483
20
-0.633176
0
VERTEX
8
0
10
0.048796
20
-0.630906
0
VERTEX
8
0
10
0.048557
20
-0.628453
0
VERTEX
8
0
10
0.048557
20
-0.552453
0
VERTEX
8
0
10
0.048796
20
-0.549999
0
VERTEX
8
0
10
0.049483
20
-0.547730
0
VERTEX
8
0
10
0.050574
20
-0.545690
0
VERTEX
8
0
10
0.052026
20
-0.543922
0
VERTEX
8
0
10
0.053794
20
-0.542470
0
VERTEX
8
0
10
0.055834
20
-0.541378
0
VERTEX
8
0
10
0.058104
20
-0.540691
0
VERTEX
8
0
10
0.060557
20
-0.540453
0
SEQEND
8
0
0
CIRCLE
8
0
10
0.078557
20
-0.590453
40
0.020000
0
POLYLINE
8
0
66
1
70
1
40
0
41
0
0
VERTEX
8
0
10
0.160557
20
-0.540453
0
VERTEX
8
0
10
0.196557
20
-0.540453
0
VERTEX
8
0
10
0.199011
20
-0.540691
0
VERTEX
8
0
10
0.201280
20
-0.541378
0
VERTEX
8
0
10
0.203320
20
-0.542470
0
VERTEX
8
0
10
0.205088
20
-0.543922
0
VERTEX
8
0
10
0.206540
20
-0.545690
0
VERTEX
8
0
10
0.207631
20
-0.547730
0
VERTEX
8
0
10
0.208318
20
-0.549999
0
VERTEX
8
0
10
0.208557
20
-0.552453
0
VERTEX
8
0
10
0.208557
20
-0.628453
0
VERTEX
8
0
10
0.208318
20
-0.630906
0
VERTEX
8
0
10
0.207631
20
-0.633176
0
VERTEX
8
0
10
0.206540
20
-0.635216
0
VERTEX
8
0
10
0.205088
20
-0.636984
0
VERTEX
8
0
10
0.203320
20
-0.638436
0
VERTEX
8
0
10
0.201280
20
-0.639527
0
VERTEX
8
0
10
0.199011
20
-0.640214
0
VERTEX
8
0
10
0.196557
20
-0.640453
0
VERTEX
8
0
10
0.160557
20
-0.640453
0
VERTEX
8
0
10
0.158104
20
-0.640214
0
VERTEX
8
0
10
0.155834
20
-0.639527
0
VERTEX
8
0
10
0.153794
20
-0.638436
0
VERTEX
8
0
10
0.152026
20
-0.636984
0
VERTEX
8
0
10
0.150574
20
-0.635216
0
VERTEX
8
0
10
0.149483
20
-0.633176
0
VERTEX
8
0
10
0.148796
20
-0.630906
0
VERTEX
8
0
10
0.148557
20
-0.628453
0
VERTEX
8
0
10
0.148557
20
-0.552453
0
VERTEX
8
0
10
0.148796
20
-0.549999
0
VERTEX
8
0
10
0.149483
20
-0.547730
0
VERTEX
8
0
10
0.150574
20
-0.545690
0
VERTEX
8
0
10
0.152026
20
-0.543922
0
VERTEX
8
0
10
0.153794
20
-0.542470
0
VERTEX
8
0
10
0.155834
20
-0.541378
0
VERTEX
8
0
10
0.158104
20
-0.540691
0
VERTEX
8
0
10
0.160557
20
-0.540453
0
SEQEND
8
0
0
CIRCLE
8
0
10
0.178557
20
-0.590453
40
0.020000
0
POLYLINE
8
0
66
1
70
1
40
0
41
0
0
VERTEX
8
0
10
0.260557
20
-0.540453
0
VERTEX
8
0
10
0.296557
20
-0.540453
0
VERTEX
8
0
10
0.299011
20
-0.540691
0
VERTEX
8
0
10
0.301280
20
-0.541378
0
VERTEX
8
0
10
0.303320
20
-0.542470
0
VERTEX
8
0
10
0.305088
20
-0.543922
0
VERTEX
8
0
10
0.306540
20
-0.545690
0
VERTEX
8
0
10
0.307631
20
-0.547730
0
VERTEX
8
0
10
0.308318
20
-0.549999
0
VERTEX
8
0
10
0.308557
20
-0.552453
0
VERTEX
8
0
10
0.308557
20
-0.628453
0
VERTEX
8
0
10
0.308318
20
-0.630906
0
VERTEX
8
0
10
0.307631
20
-0.633176
0
VERTEX
8
0
10
0.306540
20
-0.635216
0
VERTEX
8
0
10
0.305088
20
-0.636984
0
VERTEX
8
0
10
0.303320
20
-0.638436
0
VERTEX
8
0
10
0.301280
20
-0.639527
0
VERTEX
8
0
10
0.299011
20
-0.640214
0
VERTEX
8
0
10
0.296557
20
-0.640453
0
VERTEX
8
0
10
0.260557
20
-0.640453
0
VERTEX
8
0
10
0.258104
20
-0.640214
0
VERTEX
8
0
10
0.255834
20
-0.639527
0
VERTEX
8
0
10
0.253794
20
-0.638436
0
VERTEX
8
0
10
0.252026
20
-0.636984
0
VERTEX
8
0
10
0.250574
20
-0.635216
0
VERTEX
8
0
10
0.249483
20
-0.633176
0
VERTEX
8
0
10
0.248796
20
-0.630906
0
VERTEX
8
0
10
0.248557
20
-0.628453
0
VERTEX
8
0
10
0.248557
20
-0.552453
0
VERTEX
8
0
10
0.248796
20
-0.549999
0
VERTEX
8
0
10
0.249483
20
-0.547730
0
VERTEX
8
0
10
0.250574
20
-0.545690
0
VERTEX
8
0
10
0.252026
20
-0.543922
0
VERTEX
8
0
10
0.253794
20
-0.542470
0
VERTEX
8
0
10
0.255834
20
-0.541378
0
VERTEX
8
0
10
0.258104
20
-0.540691
0
VERTEX
8
0
10
0.260557
20
-0.540453
0
SEQEND
8
0
0
CIRCLE
8
0
10
0.278557
20
-0.590453
40
0.020000
0
POLYLINE
8
0
66
1
70
1
40
0
41
0
0
VERTEX
8
0
10
0.360557
20
-0.540453
0
VERTEX
8
0
10
0.396557
20
-0.540453
0
VERTEX
8
0
10
0.399011
20
-0.540691
0
VERTEX
8
0
10
0.401280
20
-0.541378
0
VERTEX
8
0
10
0.403320
20
-0.542470
0
VERTEX
8
0
10
0.405088
20
-0.543922
0
VERTEX
8
0
10
0.406540
20
-0.545690
0
VERTEX
8
0
10
0.407631
20
-0.547730
0
VERTEX
8
0
10
0.408318
20
-0.549999
0
VERTEX
8
0
10
0.408557
20
-0.552453
0
VERTEX
8
0
10
0.408557
20
-0.628453
0
VERTEX
8
0
10
0.408318
20
-0.630906
0
VERTEX
8
0
10
0.407631
20
-0.633176
0
VERTEX
8
0
10
0.406540
20
-0.635216
0
VERTEX
8
0
10
0.405088
20
-0.636984
0
VERTEX
8
0
10
0.403320
20
-0.638436
0
VERTEX
8
0
10
0.401280
20
-0.639527
0
VERTEX
8
0
10
0.399011
20
-0.640214
0
VERTEX
8
0
10
0.396557
20
-0.640453
0
VERTEX
8
0
10
0.360557
20
-0.640453
0
VERTEX
8
0
10
0.358104
20
-0.640214
0
VERTEX
8
0
10
0.355834
20
-0.639527
0
VERTEX
8
0
10
0.353794
20
-0.638436
0
VERTEX
8
0
10
0.352026
20
-0.636984
0
VERTEX
8
0
10
0.350574
20
-0.635216
0
VERTEX
8
0
10
0.349483
20
-0.633176
0
VERTEX
8
0
10
0.348796
20
-0.630906
0
VERTEX
8
0
10
0.348557
20
-0.628453
0
VERTEX
8
0
10
0.348557
20
-0.552453
0
VERTEX
8
0
10
0.348796
20
-0.549999
0
VERTEX
8
0
10
0.349483
20
-0.547730
0
VERTEX
8
0
10
0.350574
20
-0.545690
0
VERTEX
8
0
10
0.352026
20
-0.543922
0
VERTEX
8
0
10
0.353794
20
-0.542470
0
VERTEX
8
0
10
0.355834
20
-0.541378
0
VERTEX
8
0
10
0.358104
20
-0.540691
0
VERTEX
8
0
10
0.360557
20
-0.540453
0
SEQEND
8
0
0
CIRCLE
8
0
10
0.378557
20
-0.590453
40
0.020000
0
POLYLINE
8
0
66
1
70
1
40
0
41
0
0
VERTEX
8
0
10
0.460557
20
-0.540453
0
VERTEX
8
0
10
0.496557
20
-0.540453
0
VERTEX
8
0
10
0.499011
20
-0.540691
0
VERTEX
8
0
10
0.501280
20
-0.541378
0
VERTEX
8
0
10
0.503320
20
-0.542470
0
VERTEX
8
0
10
0.505088
20
-0.543922
0
VERTEX
8
0
10
0.506540
20
-0.545690
0
VERTEX
8
0
10
0.507631
20
-0.547730
0
VERTEX
8
0
10
0.508318
20
-0.549999
0
VERTEX
8
0
10
0.508557
20
-0.552453
0
VERTEX
8
0
10
0.508557
20
-0.628453
0
VERTEX
8
0
10
0.508318
20
-0.630906
0
VERTEX
8
0
10
0.507631
20
-0.633176
0
VERTEX
8
0
10
0.506540
20
-0.635216
0
VERTEX
8
0
10
0.505088
20
-0.636984
0
VERTEX
8
0
10
0.503320
20
-0.638436
0
VERTEX
8
0
10
0.501280
20
-0.639527
0
VERTEX
8
0
10
0.499011
20
-0.640214
0
VERTEX
8
0
10
0.496557
20
-0.640453
0
VERTEX
8
0
10
0.460557
20
-0.640453
0
VERTEX
8
0
10
0.458104
20
-0.640214
0
VERTEX
8
0
10
0.455834
20
-0.639527
0
VERTEX
8
0
10
0.453794
20
-0.638436
0
VERTEX
8
0
10
0.452026
20
-0.636984
0
VERTEX
8
0
10
0.450574
20
-0.635216
0
VERTEX
8
0
10
0.449483
20
-0.633176
0
VERTEX
8
0
10
0.448796
20
-0.630906
0
VERTEX
8
0
10
0.448557
20
-0.628453
0
VERTEX
8
0
10
0.448557
20
-0.552453
0
VERTEX
8
0
10
0.448796
20
-0.549999
0
VERTEX
8
0
10
0.449483
20
-0.547730
0
VERTEX
8
0
10
0.450574
20
-0.545690
0
VERTEX
8
0
10
0.452026
20
-0.543922
0
VERTEX
8
0
10
0.453794
20
-0.542470
0
VERTEX
8
0
10
0.455834
20
-0.541378
0
VERTEX
8
0
10
0.458104
20
-0.540691
0
VERTEX
8
0
10
0.460557
20
-0.540453
0
SEQEND
8
0
0
CIRCLE
8
0
10
0.478557
20
-0.590453
40
0.020000
0
POLYLINE
8
0
66
1
70
1
40
0
41
0
0
VERTEX
8
0
10
0.560557
20
-0.540453
0
VERTEX
8
0
10
0.596557
20
-0.540453
0
VERTEX
8
0
10
0.599011
20
-0.540691
0
VERTEX
8
0
10
0.601280
20
-0.541378
0
VERTEX
8
0
10
0.603320
20
-0.542470
0
VERTEX
8
0
10
0.605088
20
-0.543922
0
VERTEX
8
0
10
0.606540
20
-0.545690
0
VERTEX
8
0
10
0.607631
20
-0.547730
0
VERTEX
8
0
10
0.608318
20
-0.549999
0
VERTEX
8
0
10
0.608557
20
-0.552453
0
VERTEX
8
0
10
0.608557
20
-0.628453
0
VERTEX
8
0
10
0.608318
20
-0.630906
0
VERTEX
8
0
10
0.607631
20
-0.633176
0
VERTEX
8
0
10
0.606540
20
-0.635216
0
VERTEX
8
0
10
0.605088
20
-0.636984
0
VERTEX
8
0
10
0.603320
20
-0.638436
0
VERTEX
8
0
10
0.601280
20
-0.639527
0
VERTEX
8
0
10
0.599011
20
-0.640214
0
VERTEX
8
0
10
0.596557
20
-0.640453
0
VERTEX
8
0
10
0.560557
20
-0.640453
0
VERTEX
8
0
10
0.558104
20
-0.640214
0
VERTEX
8
0
10
0.555834
20
-0.639527
0
VERTEX
8
0
10
0.553794
20
-0.638436
0
VERTEX
8
0
10
0.552026
20
-0.636984
0
VERTEX
8
0
10
0.550574
20
-0.635216
0
VERTEX
8
0
10
0.549483
20
-0.633176
0
VERTEX
8
0
10
0.548796
20
-0.630906
0
VERTEX
8
0
10
0.548557
20
-0.628453
0
VERTEX
8
0
10
0.548557
20
-0.552453
0
VERTEX
8
0
10
0.548796
20
-0.549999
0
VERTEX
8
0
10
0.549483
20
-0.547730
0
VERTEX
8
0
10
0.550574
20
-0.545690
0
VERTEX
8
0
10
0.552026
20
-0.543922
0
VERTEX
8
0
10
0.553794
20
-0.542470
0
VERTEX
8
0
10
0.555834
20
-0.541378
0
VERTEX
8
0
10
0.558104
20
-0.540691
0
VERTEX
8
0
10
0.560557
20
-0.540453
0
SEQEND
8
0
0
CIRCLE
8
0
10
0.578557
20
-0.590453
40
0.020000
0
POLYLINE
8
0
66
1
40
0.008000
41
0.008000
0
VERTEX
8
0
10
-1.250970
20
-0.547343
0
VERTEX
8
0
10
-1.248621
20
-0.571492
0
VERTEX
8
0
10
-1.241858
20
-0.593825
0
VERTEX
8
0
10
-1.231117
20
-0.613909
0
VERTEX
8
0
10
-1.216829
20
-0.631311
0
VERTEX
8
0
10
-1.199427
20
-0.645600
0
VERTEX
8
0
10
-1.179343
20
-0.656341
0
VERTEX
8
0
10
-1.157010
20
-0.663103
0
VERTEX
8
0
10
-1.132860
20
-0.665453
0
SEQEND
8
0
0
POLYLINE
8
0
66
1
40
0.008000
41
0.008000
0
VERTEX
8
0
10
1.308085
20
-0.547343
0
VERTEX
8
0
10
1.305735
20
-0.571492
0
VERTEX
8
0
10
1.298972
20
-0.593825
0
VERTEX
8
0
10
1.288231
20
-0.613909
0
VERTEX
8
0
10
1.273943
20
-0.631311
0
VERTEX
8
0
10
1.256541
20
-0.645600
0
VERTEX
8
0
10
1.236457
20
-0.656341
0
VERTEX
8
0
10
1.214124
20
-0.663103
0
VERTEX
8
0
10
1.189974
20
-0.665453
0
SEQEND
8
0
0
POLYLINE
8
0
66
1
40
0.008000
41
0.008000
0
VERTEX
8
0
10
1.308085
20
0.594390
0
VERTEX
8
0
10
1.305735
20
0.618539
0
VERTEX
8
0
10
1.298972
20
0.640872
0
VERTEX
8
0
10
1.288231
20
0.660957
0
VERTEX
8
0
10
1.273943
20
0.678359
0
VERTEX
8
0
10
1.256541
20
0.692647
0
VERTEX
8
0
10
1.236457
20
0.703388
0
VERTEX
8
0
10
1.214124
20
0.710150
0
VERTEX
8
0
10
1.189974
20
0.712500
0
SEQEND
8
0
0
POLYLINE
8
0
66
1
40
0.008000
41
0.008000
0
VERTEX
8
0
10
-1.250970
20
0.594390
0
VERTEX
8
0
10
-1.248621
20
0.618539
0
VERTEX
8
0
10
-1.241858
20
0.640872
0
VERTEX
8
0
10
-1.231117
20
0.660957
0
VERTEX
8
0
10
-1.216829
20
0.678359
0
VERTEX
8
0
10
-1.199427
20
0.692647
0
VERTEX
8
0
10
-1.179343
20
0.703388
0
VERTEX
8
0
10
-1.157010
20
0.710150
0
VERTEX
8
0
10
-1.132860
20
0.712500
0
VERTEX
8
0
10
1.189974
20
0.712500
0
SEQEND
8
0
0
POLYLINE
8
0
66
1
40
0.008000
41
0.008000
0
VERTEX
8
0
10
1.308085
20
0.594390
0
VERTEX
8
0
10
1.308085
20
-0.547343
0
SEQEND
8
0
0
POLYLINE
8
0
66
1
40
0.008000
41
0.008000
0
VERTEX
8
0
10
1.189974
20
-0.665453
0
VERTEX
8
0
10
-1.132860
20
-0.665453
0
SEQEND
8
0
0
POLYLINE
8
0
66
1
40
0.008000
41
0.008000
0
VERTEX
8
0
10
-1.250970
20
-0.547343
0
VERTEX
8
0
10
-1.250970
20
0.594390
0
SEQEND
8
0
0
ENDSEC
0
EOF

